Song name
# A B C D E F G H I J K L M N O P Q R S T U V W X Y Z

Planet Shakers - Bring It On tab

-------------------------------------------------------------------------------
                            BRING IT ON - Planet Shakers
-------------------------------------------------------------------------------
Tabbed by: cjb2293
Hope this helps!

Tuning: Drop D

INTRO
      D
e|------------------------------------------------------------------------------------|
B|------------------------------------------------------------------------------------|
G|------------------------------------------------------------------------------------|
D|--0---------------------------------------------------------------------------------|
A|--0----10-9----------------10-9-----------------10-9----------------10-9------------|
D|--0--0------10-10/12--0--0------10-10/12--0--0------10-10/12--0--0------10-10/12----|

      F                           G
e|------------------------------------------|
B|------------------------------------------|
G|------------------------------------------|
D|--3---------------5-----------------------|
A|--3----0---0------5--0-3-0-3/5-5~~--------|
D|--3--5---5---5~---5-----------------------|


VERSE Progression
          D           C               F               G                    C             
 (Repeat as needed)
e|-------------------------------------------------------|
B|-------------------------------------------------------|
G|---7-------5---------------------------5---------------|
D|---7-[x8]---5-[x8]---3---------5--------5-[x4]---------|
A|---5-------3--------3-[x8]----5-[x4]----3--------------|
D|--------------------3--------5-------------------------|
Tap to rate this tab
# A B C D E F G H I J K L M N O P Q R S T U V W X Y Z