Song name
# A B C D E F G H I J K L M N O P Q R S T U V W X Y Z

Planet Smashers - Coolest Guy In The Whole World tab

Tabbed by Dan Ware
I am almost positive this is correct but email me if you have corrections
dcsk8er@mail.com

Intro
E|--------------8---------------------------8-6-|
B|------------8---------6-----6-----6-----6-----|
G|-7/8-10-8-9-----9-6h7---6h7---6h7---6h7-------|
D|----------------------------------------------|
A|----------------------------------------------|
E|----------------------------------------------|

Verse (use ska strumming)
E|-3--8--6-|
B|-4--8--6-|
G|-3--9--7-|
D|---------|
A|---------|
E|---------|

Chorus (use ska strumming)
E|-4--6--3-|
B|-4--6--4-|
G|-5--7--3-|
D|---------|
A|---------|
E|---------|

Solo
E|--------------8---------------------------8-6-|
B|------------8---------6-----6-----6-----6-----|
G|-7/8-10-8-9-----9-6h7---6h7---6h7---6h7-------|
D|----------------------------------------------|
A|----------------------------------------------|
E|----------------------------------------------|

E|-11-11-11-11--8-8-8------6-----6-----6-----6-----6-6-|
B|-11-11-11-11--8-8-8--5/6-6-5/6-6-5/6-6-5/6-6-5/6-6-6-|
G|-12-12-12-12--9-9-9------7-----7-----7-----7-----7-7-|
D|-----------------------------------------------------|
A|-----------------------------------------------------|
E|-----------------------------------------------------|
Tap to rate this tab
# A B C D E F G H I J K L M N O P Q R S T U V W X Y Z