Song name
# A B C D E F G H I J K L M N O P Q R S T U V W X Y Z

Planet Smashers - My Decision tab

-------------------------------------------------------------------------------
                    My Decision - Planet Smashers
-------------------------------------------------------------------------------
Tabbed by: Andy Heidt
Email: andythecripple@hotmail.com

Tuning: standard

Intro                      
|-----------------|-----------------|---------3-------|
|-----------------|-----------------|---------3-------|
|-----5-----------|-7---5-----------|-7---5---4-------|
|-3---5---5-------|-7---5---5-------|-7---5---5-------|
|-3---3---5-------|-5---3---5-------|-5---3---5-------|
|-1-------3-------|---------3-------|---------3-------|
  F   C   G         D   C   G         D   C   G  

Verse/ 1st part of instrumental              
|-5---3---5-------| |-3-| Last
|-6---3---5-------| |-3-| chord
|-7---4---5-------| |-4-| before
|-7---5---7-------| |-5-| chorus
|-5---5---7-------| |-5-|
|-5---3---5-------| |-3-|
  Dm  G   Am          G

Chorus/ 2nd part of instrumental
|-3---3---5---1---|
|-5---3---5---1---|
|-5---4---5---2---|
|-5---5---7---3---|
|-3---5---7---3---|
|-3---3---5---1---|
  C   G   Am  F
  
Bridge/Outro   Riff played over chord
	
|-5-|          |-------------|
|-5-|          |-------------|
|-5-|          |-------------|
|-7-|          |-------------|
|-7-|          |----7--5-----|
|-5-|          |-5--------8--|
  Am
Tap to rate this tab
 
# A B C D E F G H I J K L M N O P Q R S T U V W X Y Z