Song name
# A B C D E F G H I J K L M N O P Q R S T U V W X Y Z

Planet Smashers - Take It From The Top tab

-------------------------------------------------------------------------------
                    Take It From the Top - Planet Smashers
-------------------------------------------------------------------------------
Tabbed by: Andy Heidt
Email: andythecripple@hotmail.com

Tuning: standard

Intro/Verse/Chorus                 
|-7---5---3---5---|
|-7---5---3---5---|
|-7---6---4---6---|
|-9---7---5---7---|
|-9---7---5---7---|
|-7---5---3---5---|
  Bm  A   G   A    

Preverse/Outro 		 
|-7-----------6---|-7-----------8---|
|-7-----------6---|-7-----------8---|
|-7-----------6---|-7-----------9---|
|-9-----------8---|-9-----------10--|
|-9-----------8---|-9-----------10--|
|-7-----------6---|-7-----------8---|
  Bm          Bbm   Bm          C

PreIntro Riff (As the song begins)		 
|---------|
|---------|
|---------|
|---------|
|---------|
|-10-9-7-5|
      

Intro Riff
|----------------------------------------------------|
|----------------------------------------------------|
|----------------------------------------------------|
|----------------------------------------------------|
|------------------------------2--4--5--4-----5-4----|
|-7--10--7--10--9--5--2--5--3--------------5------7-5|
  Bm            A           G           A
Tap to rate this tab
# A B C D E F G H I J K L M N O P Q R S T U V W X Y Z