Song name
# A B C D E F G H I J K L M N O P Q R S T U V W X Y Z

Planet Smashers - Pierce Me tab

---------------------------|
---------------------------|
---------------------------|
---------------------------|
-2-4-2-6-4-2-6-4-2-4-2---2-|
-----------------------4---|

---------------------------|
---------------------------|
---------------------------|
---------------------------|
-0-2-0-4-2-0-4-2-0-2-0---0-|
-----------------------2---|

horns play the same and im too lazy to figure out the rest

Mike Beeeeeee

p.s. if you fin anything wrong...just write a new one

Tap to rate this tab
 
# A B C D E F G H I J K L M N O P Q R S T U V W X Y Z