Guitaretab - guitar tabs
Song name
# A B C D E F G H I J K L M N O P Q R S T U V W X Y Z

Planet Smashers - King Of Tuesday Night tab

-------------------------------------------------------------------------------
			     King of Tuesday Night - The Planet Smashers
-------------------------------------------------------------------------------
Tabbed by: Juniorfr3ak
Email: Bobdoleexperience@gmail.com

Tuning: EADGBE

  MAIN RIFF
e|---------------------------------------------------------------------------|
B|---------------------------------------------------------------------------|
G|---------------------------------------------------------------------------|
D|-----7-7------7-4----------------------------------------------------------|
A|-5-5-----5-5-5-----------4-4-7-7-------------------------------------------|
E|-PM-----PM--------2-5-5----------------------------------------------------|
[ Tab from: http://www.guitaretab.com/p/planet-smashers/90266.html ]
  CHORUS
e|---------------------------------------------------------------------------|
B|---------------------------------------------------------------------------|
G|-7-7-7-7-7-7-7-7---------6-6-6-6-]------7-7-7-7-7--------------------------|
D|-7-7-7-7-7-7-7-7-7-7-4-4-6-6-6-6-]-3X---7-7-7-7-7--------------------------|
A|-5-5-5-5-5-5-5-5-7-7-4-4-4-4-4-4-]------5-5-5-5-5--------------------------|
E|-----------------5-5-2-2---------------------------------------------------|

  ENDING
e|---------------------------------------------------------------------------|
B|---------------------------------------------------------------------------|
G|---------------------------------------------------------------------------|
D|-----7-------7-4-----------------------------------------------------------|
A|-5-5---5-5-5---------------------------------------------------------------|
E|-PM-----PM-----------------------------------------------------------------|


| /  slide up
| \  slide down
| h  hammer-on
| p  pull-off
| ~  vibrato
| +  harmonic
| x  Mute note
===============================================================================
Related for King Of Tuesday Night tab