Song name
# A B C D E F G H I J K L M N O P Q R S T U V W X Y Z

Planet X - Poland tab

Help us improve GuitareTab! Take a short survey!
"Poland"
By Planet X
Tabbed by Jonblondejovi
Email: Jmallory@sasweb.org

I only figured out some of the guitar parts. I didnt have time for the others. Maybe if
request then I will do other parts. Enjoy. I believe this song is in D and i have tuning
( really dont feel like loosing them) So if your a good player then u will be able to 
D where it sounds best, like the lower power chords for example. Enjoy again!

Place the Palm Muting where you think it sounds the best becuase trying to place them
will be too difficult, although its easy to play lol.

Note: The song is in D Standerd so drop everything 2 frets and for the chorus use 1 bar 
chords.

Tuning: Standerd

e|--------------------------------------------------------------------------|
B|-----------------------14b16------14s16~~~~~------12-13-15--13------------|
G|--13b15---15b17-17b18--------13------------14--14---------------11b13-11--|
D|--------------------------------------------------------------------------|
A|--------------------------------------------------------------------------|
E|--------------------------------------------------------------------------|

                                         2nd Time:

e|-----------------------------16----------16s17~~~~~~~~~-------------------|
B|--------12-13-15--17--17b19-------:---------------------------------------|
G|-14--14-----------------------------x-2-----------------------------------|
D|--------------------------------------------------------------------------|
A|----------------------------------:---------------------------------------|
E|--------------------------------------------------------------------------|

Chorus:

e|--------------------------------------------------------------------------|
B|--------------------------------------------------------------------------|
G|--------------------------------------------------------------------------|
D|------------------------------------7-7-7---------------------------------|
A|8-8-8-8-8---5--5-5--5---3-3-3-3-3---5-5-5--56565--5--5-6-5-6-5556565656---|
E|6-6-6-6-6---3--3-3--3---1-1-1-1-1---5-5-5---------------------------------|

e|---------------------------------------------------------------------------|
B|---------------------------------------------------------------------------|
G|---------------------------------------------------------------------------|
D|------------Same as Above--------------------------------------------------|
A|-----------------------------------...--56565--5--5-6-5-6-56----4-2--------|
E|------------------------------------------------------------4542-2-2-------|

e|---------------------------------------------------------------------------|
B|---------------------------------------------------------------------------|
G|--------------------------------------------------------130----------------|
D|---Same as Above---...----=-----------------9---------01----1----1---------|
A|--------------------------56565-6-5-6-567-9--7-7--7--3----------4----------|
E|-----------------------------------------7-7--0-00--1------4-214-----------|

e|-------------------------------------------------------------------------|
B|-------------------------------------------------------------------------|
G|----------------7---8----------------------------------------------------|
D|--7------3------7---8----------------------------------------------------|
A|--7------3------5---6----------------------------------------------------|
E|--5------1------5---6----------------------------------------------------|

Once again, alittle rough but enough.
Related for Poland tab