Song name
# A B C D E F G H I J K L M N O P Q R S T U V W X Y Z

Planetshakers - So In Love With You tab

To play this song from the track PLAY EVERYTHING UP A FRET

Tabs
Intro
Strum
--------------|
--------------|
-12-14-16--9--|
--------------|
-10-12-14--7--|
--------------|

Last time round, play:

--------------|
--------------|
-12-14-16--17-|
--------------|
-10-12-14--15-|
--------------|


Verse
With palm mutes
-------------------------------------------------|
-------------------------------------------------|
-------------------------------------------------|
---------------5---------------------------------|
---------------3---------------------------------|
-3..-5-5---0..-----------------------------------|

Pre-Chorus
With dotted 8th delay
----------------------------------------|
10----8-----7-----8-----7---8-----------|
--7-7---7-7---7-7---7-7---7---7---------|
----------------------------------------|
----------------------------------------|
----------------------------------------|

----------------------------------------|
3---1-----3-----1-----3---1-------------|
-0-0--0-0---0-0---0-0---0---0-----------|
----------------------------------------|
----------------------------------------|
----------------------------------------|

----------------------------------------|
10----8-----7-----8-----7---8-----------|
--7-7---7-7---7-7---7-7---7---7---------|
----------------------------------------|
----------------------------------------|
----------------------------------------|

-----------------------|
-3----5----7----8------|
--0-0--0-0--0-0-11b12--|
-----------------------|
-----------------------|
-----------------------|

Chorus
Strum with delay
---------------------------|
-8--7--8--8---8--7---------|
-7--7--7--5---7--7--2--5---|
-5--------5---5-----2--5---|
----5--7---------5--0--3---|
---------------------------|

----------------------------|
-8--7--8--8---8--7----------|
-7--7--7--5---7--7--2-9-5---|
-5--------5---5-----2-9-5---|
----5--7---------5--0-7-3---|
----------------------------|
Tap to rate this tab
# A B C D E F G H I J K L M N O P Q R S T U V W X Y Z