Guitaretab - guitar tabs
Song name
# A B C D E F G H I J K L M N O P Q R S T U V W X Y Z

Planetshakers - The Victory tab

The Victory
Planetshakers


E----------------------------------------------------------------------|x2
B----------------------------------------------------------------------|
G----------------------------------------------------------------------|
D-------------------6666666666-----------------------------------------|
A-6666666666-1122---4444444444-1122---2222222222-1122------------------|
E-4444444444-----22----------------22-0000000000-----222222222233337766|

 
 Second time through release palm mute just before the end
 PM--------------------------------------------------------------------|
E----------------------------------------------------------------------|x2
B----------------------------------------------------------------------|
G----------------------------------------------------------------------|
D-------------------66666666666666666----------------------------------|
A-66666666666666666-44444444444444444-2222222222222222-2222222222222222|
E-44444444444444444-------------------0000000000000000-4444444444444444|


                                         PM-----------|
E---------------------------------------------------------|
B---------------------------------------------------------|
G---------------------------------------------------------|
D-------6-------------------------6-----------------------|
A-6--4--4------6--4--2------6--4--4------22222222-44444444|
E-4--2---------4--2--0------4--2---------00000000-22222222|


E----------------------------------------------------------------------|x2
B----------------------------------------------------------------------|
G----------------------------------------------------------------------|
D------------------4444444444444444------------------------------------|
A-6666666666666666-2222222222222222-22222222-44444444-22222222-44444445|
E-4444444444444444------------------00000000-22222222-00000000-22222223|


E----------------------------------------------------------------------|
B----------------------------------------------------------------------|
G----------------------------------------------------------------------|
D-------------------6666666666-----------------------------------------|
A-6666666666-1122---4444444444-1122---2222222222-1122------------------|
E-4444444444-----22----------------22-0000000000-----222222222233337766|

 
 PM----------------------------------------------------------------|
E----------------------------------------------------------------------|
B----------------------------------------------------------------------|
G----------------------------------------------------------------------|
D-------------------66666666666666666----------------------------------|
A-66666666666666666-44444444444444444-2222222222222222-2222222222222222|
E-44444444444444444-------------------0000000000000000-4444444444444444|


Pause for singing

[ Tab from: http://www.guitaretab.com/p/planetshakers/186019.html ]
                                         PM-----------|
E---------------------------------------------------------|
B---------------------------------------------------------|
G---------------------------------------------------------|
D-------6-------------------------6-----------------------|
A-6--4--4------6--4--2------6--4--4------22222222-44444444|
E-4--2---------4--2--0------4--2---------00000000-22222222|


E----------------------------------------------------------------------|x2
B----------------------------------------------------------------------|
G----------------------------------------------------------------------|
D------------------4444444444444444------------------------------------|
A-6666666666666666-2222222222222222-22222222-44444444-22222222-44444445|
E-4444444444444444------------------00000000-22222222-00000000-22222223|


E----------------------------------------------------------------------|
B----------------------------------------------------------------------|
G----------------------------------------------------------------------|
D-------------------6666666666-----------------------------------------|
A-6666666666-1122---4444444444-1122---2222222222-1122------------------|
E-4444444444-----22----------------22-0000000000-----222222222233337766|


Pause for singing again

First time palm mute
E----------------------------------------------------------------------|x2
B----------------------------------------------------------------------|
G----------------------------------------------------------------------|
D-------------------6666666666-----------------------------------------|
A-6666666666-1122---4444444444-1122---2222222222-1122------------------|
E-4444444444-----22----------------22-0000000000-----222222222233337766|


E-----------------------------------------------|
B-----------------------------------------------|
G-----------------------------------------------|
D-----------4-----------------------------------|
A-6---------2---------222---444---222---44444445|
E-4-------------------000---222---000---22222223|

E----------------------------------------------------------------------|
B----------------------------------------------------------------------|
G----------------------------------------------------------------------|
D------------------4444444444444444------------------------------------|
A-6666666666666666-2222222222222222-22222222-44444444-22222222-44444445|
E-4444444444444444------------------00000000-22222222-00000000-22222223|


E----------------------------------------------------------------------|x2
B----------------------------------------------------------------------|
G----------------------------------------------------------------------|
D-------------------6666666666-----------------------------------------|
A-6666666666-1122---4444444444-1122---2222222222-1122------------------|
E-4444444444-----22----------------22-0000000000-----222222222233337766|

Slow it down at the end and thats it ;)
Related for The Victory tab
Advertisement will be closed in 10 seconds