Song name
# A B C D E F G H I J K L M N O P Q R S T U V W X Y Z

Planetshakers - No Compromise tab

Hello praisers and worshippers of God! May all of you be covered by the protection and 
of the most precious blood of our Lord and Savior, Jesus Christ.

Song: No Compromise
Artist: Planetshakers
Album: One
Tuning: Drop D(dADGBE)

Intro:
|-<^synth^>-<^drums^>-|
|-<15\3/15>-<^drums^>-|
|-<^synth^>-<^drums^>-|
|-<^synth^>-<^drums^>-|
|-<^synth^>-<^drums^>-|
|-<^synth^>-<^drums^>-|

Guitar(after drums;x4):
|-----------------------|
|-----------------------|
|-----------------------|
|-0---------0-10/121212-|
|-0---6-5-3-0-10/121212-|
|-0---6-5-3-0-0--0-0-0--|

Verse(2x):
Guitar1:
|----|----------|---------|----------|---------|----------|-------------------|
|----|----------|---------|----------|---------|----------|-------------------|
|----|----------|---------|----------|---------|----------|-------------------|
|----|12---10h12|10h12----|12---10h12|10h12----|12---10h12|10h12-121212-12-12-|
|----|----------|---------|----------|---------|----------|------121212-12-12-|
|----|----------|---------|----------|---------|----------|------121212-12-12-|

Guitar2:
|----|----------|---------|----------|---------|----------|-------------------|
|----|----------|---------|----------|---------|----------|-------------------|
|----|----------|---------|----------|---------|----------|-------------------|
|----|----------|---------|----------|---------|----------|------121212-12-12-|
|1212|----------|12\\\8-8-|----------|-8\\\5-5-|----------|-5////121212-12-12-|
|1212|----------|12\\\8-8-|----------|-8\\\5-5-|----------|-5////121212-12-12-|

Pre-Chorus(2x):
|------------------|
|------------------|
|------------------|
|--------------0-0-|
|-(palm muted)-0-0-|
|-00-000-00000-0-0-|

Chorus:
|-----------------------------------------|
|-----------------------------------------|
|-----------------------------------------|
|-0---7-8-5-5-5-10-10\0---7-8-5-5-5-0-3-2-|
|-0---7-8-5-5-5-10-10\0---7-8-5-5-5-0-3-2-|
|-0-x-7-8-5-5-5-10-10\0-x-7-8-5-5-5-0-3-2-|

|-----------------------------------------|
|-----------------------------------------|
|-----------------------------------------|
|-0---7-8-5-5-5-10-10-8~~-3-5-3-5-7-5-3-0~|
|-0---7-8-5-5-5-10-10-8~~-3-5-3-5-7-5-3-0~|
|-0-x-7-8-5-5-5-10-10-8~~-3-5-3-5-7-5-3-0~|

Repeat Intro, Verse, Pre-Chorus and Chorus.

Bridge(8x):
Same as Intro, only with slight changes
|------------------------|
|------------------------|
|------------------------|
|-0---------0-10/1210/12-|
|-0---6-5-3-0-10/1210/12-|
|-0---6-5-3-0-0--0-0--0--|

Repeat Intro, Chorus 2x, then Intro again.

God bless!
Tap to rate this tab
# A B C D E F G H I J K L M N O P Q R S T U V W X Y Z