Song name
# A B C D E F G H I J K L M N O P Q R S T U V W X Y Z

Planetshakers - Nothing Is Impossible tab

Listen to song for timing... Tab is not 100%
 right as it's my first...
Intro:
e--------------------------------|
B--------------------------------|
G-777777777777777777777777777777-|
D-777777777777777777777777777777-| (strum)
A-555555555555555555555555555555-|
E--------------------------------|
  play till Chorus

Chorus:
e--------------------------------------------------------|
B--------------------------------------------------------|
G-7-7-7-77-7-7-------------------------------------------|
D-7-7-7-77-7-7--7-7-7-77-7-7--9-9-9-99-9-9--5-5-5-55-5-5-|
A-5-5-5-55-5-5--7-7-7-77-7-7--9-9-9-99-9-9--5-5-5-55-5-5-|
E---------------5-5-5-55-5-5--7-7-7-77-7-7--3-3-3-33-3-3-|

e--------------------------------------------------------|
B--------------------------------------------------------|
G-7-7-7-77-7-7-------------------------------------------|
D-7-7-7-77-7-7--7-7-7-77-7-7--9-9-9-99-9-9--5-5-5-55-5-5-|
A-5-5-5-55-5-5--7-7-7-77-7-7--9-9-9-99-9-9--5-5-5-55-5-5-|
E---------------5-5-5-55-5-5--7-7-7-77-7-7--3-3-3-33-3-3-|

Instrumental:
e------------------------|
B------------------------|
G-7-7--------7-----------|
D-7-7--55-5--7~--22--5~--| (x2)
A-5-5--55-5--5~--22--5~--|
E------33-3---~--00--3~--|

Verse:
e------------------|
B------------------|
G-7-777--2~--5-55--|
D-7-777--2~--5-55--|
A-5-555--0~--3-33--|
E------------------|

Pre-Chorus:
e----------------------------------------------|
B----------------------------------------------|
G----------------------------------------------|
D-9-9--7-7-7--5--5-5---9-9--7-7-7--2-2-5--5-5--|
A-9-9--7-7-7--5--5-5---9-9--7-7-7--2-2-5--5-5--|
E-7-7--5-5-5--3--3-3---7-7--5-5-5--0-0-3--3-3--|

Chorus:
e--------------------------------------------------------|
B--------------------------------------------------------|
G-7-7-7-77-7-7-------------------------------------------|
D-7-7-7-77-7-7--7-7-7-77-7-7--9-9-9-99-9-9--5-5-5-55-5-5-|
A-5-5-5-55-5-5--7-7-7-77-7-7--9-9-9-99-9-9--5-5-5-55-5-5-|
E---------------5-5-5-55-5-5--7-7-7-77-7-7--3-3-3-33-3-3-|

e--------------------------------------------------------|
B--------------------------------------------------------|
G-7-7-7-77-7-7-------------------------------------------|
D-7-7-7-77-7-7--7-7-7-77-7-7--9-9-9-99-9-9--5-5-5-55-5-5-|
A-5-5-5-55-5-5--7-7-7-77-7-7--9-9-9-99-9-9--5-5-5-55-5-5-|
E---------------5-5-5-55-5-5--7-7-7-77-7-7--3-3-3-33-3-3-|

Instrumental:
e------------------------|
B------------------------|
G-7-7--------7-----------|
D-7-7--55-5--7~--22--5~--| (x2)
A-5-5--55-5--5~--22--5~--|
E------33-3---~--00--3~--|

Bridge:
e-----------------|
B-----------------|
G-----7~----------|
D-5~--7~--2~--5~--| (x2)
A-5~--5~--2~--5~--|
E-3~------0~--3~--|

e-------------------------------------|
B-------------------------------------|
G----------7-77-77--------------------|
D-5-55-55--7-77-77--2-22-22--5-55-55--| (x2)
A-5-55-55--5-55-55--2-22-22--5-55-55--|
E-3-33-33-----------0-00-00--3-33-33--|

Chorus:
e--------------------------------------------------------|
B--------------------------------------------------------|
G-7-7-7-77-7-7-------------------------------------------|
D-7-7-7-77-7-7--7-7-7-77-7-7--9-9-9-99-9-9--5-5-5-55-5-5-|
A-5-5-5-55-5-5--7-7-7-77-7-7--9-9-9-99-9-9--5-5-5-55-5-5-|
E---------------5-5-5-55-5-5--7-7-7-77-7-7--3-3-3-33-3-3-|

e--------------------------------------------------------|
B--------------------------------------------------------|
G-7-7-7-77-7-7-------------------------------------------|
D-7-7-7-77-7-7--7-7-7-77-7-7--9-9-9-99-9-9--5-5-5-55-5-5-|
A-5-5-5-55-5-5--7-7-7-77-7-7--9-9-9-99-9-9--5-5-5-55-5-5-|
E---------------5-5-5-55-5-5--7-7-7-77-7-7--3-3-3-33-3-3-|

Instrumental:
e------------------------|
B------------------------|
G-7-7--------7-----------|
D-7-7--55-5--7~--22--5~--| (x2)
A-5-5--55-5--5~--22--5~--|
E------33-3---~--00--3~--|

Bridge:
e-----------------|
B-----------------|
G-----7~----------|
D-5~--7~--2~--5~--| (x2)
A-5~--5~--2~--5~--|
E-3~------0~--3~--|

e-------------------------------------|
B-------------------------------------|
G----------7-77-77--------------------|
D-5-55-55--7-77-77--2-22-22--5-55-55--| (x2)
A-5-55-55--5-55-55--2-22-22--5-55-55--|
E-3-33-33-----------0-00-00--3-33-33--|

e-------------------------------------|
B-------------------------------------|
G----------7-77-77--------------------|
D-5-55-55--7-77-77--2-22-22--5-55-55--| 
A-5-55-55--5-55-55--2-22-22--5-55-55--|
E-3-33-33-----------0-00-00--3-33-33--|

End:
e----------------|
B----------------|
G----------------|
D-5-55-55-55-5~--|
A-5-55-55-55-5~--|
E-3-33-33-33-3~--|
Tap to rate this tab
# A B C D E F G H I J K L M N O P Q R S T U V W X Y Z