Song name
# A B C D E F G H I J K L M N O P Q R S T U V W X Y Z

Planetshakers - Reflector tab

This are the chords for the ACOUSTIC version of reflector. Email me at 
to request for the rock version. God bless.

Intro:
Guitar 1
e|----------------------------------------------------------------------------|
B|----------------------------------------------------------------------------|
G|---2h4----4s6-6----4---6----2-----------------------------------------------|
D|----------------------------------------------------------------------------|
A|----------------------------------------------------------------------------|
E|----------------------------------------------------------------------------|

e|----------------------------------------------------------------------------|
B|----------------------------------------------------------------------------|
G|---2h4----4s6-6----4---6----------------------------------------------------|
D|---------------------------4------------------------------------------------|
A|----------------------------------------------------------------------------|
E|----------------------------------------------------------------------------|

e|----------------------------------------------------------------------------|
B|----------------------------------------------------------------------------|
G|------------2---------------------------------------------------------------|
D|------2s4-------------------------------------------------------------------|
A|----------------------------------------------------------------------------|
E|----------------------------------------------------------------------------|

Intro:
Guitar 2 and others
A  E/G# D2
A           E/G#        D2
Since i've found your love
                    A         E/G#     D2
I've never needed anything to fill my heart
 A    E/G#   D2
Even when i fall
                                A     E/G#    D2
You're always there with open arms to pick me up
A          E/G#    D2
From the start i knew
                           A       E/G#     D2
No one else could make me feel the way you do
   A        E       F#m
Everyday i want to grow
                   D2                       D2
Just a little bit closer, just a little bit closer
                  A
I want to be a reflector
                           F#m
I want to shine with your glory
                    E
I want to let the whole world know that you're
  D2
Living in me
                          A
I want to burn with your fire
                          F#m
Shine my light a little brighter
                    E
I want to let the whole world know that
  D2
Jesus Lives in me


Interlude
F#m  E   A    D2


Outro
A   F#m   D2   E
Tap to rate this tab
 
# A B C D E F G H I J K L M N O P Q R S T U V W X Y Z