Song name
# A B C D E F G H I J K L M N O P Q R S T U V W X Y Z

Planetshakers - Here I Am tab

Haha my first tab here, so please rate xD.

For the plucking intro, for the first first note you can strum a G chords with you 
so it sounds a bit muted, like the song..i think, as well as the 2 on the last string, a D/F# 
:)

Standard tuning btw

Email : impulse1200@hotmail.com


[Intro]
G  D/F#  Em  D/F#  C

--------------------------------------------------------------------|
-----------0------------------0----------------0--0-----------------|
--------0-----0------------2-----0-------0h2------------------------|
-----0------------------0-------------------------------------------|
--------------------------------------------------------------------|
-3------------------2-----------------------------------------------|

------------------------------------------------------------------|
----------3----------------3---------------------3----------------|
--------0----0----------0-----------2p0------0----0~--------------|
------2---------------0-------------------------------------------|
--------------------------------------------3---------------------|
------------------------------------------------------------------|


[Verse 1]
G
something in my heart
D/F#
burning like a fire
 Em            D/F#            C
i want to live for you


[Verse 2]
G
need your touch right now
D/F#
fill me with your power
Em          D/F#               C          G
i want to live for you , my GOD


[Pre Chorus]
D/F#          Em          C
i will not be moved
D/F#           Em          C
i will stand for you


[Chorus]
  G
  i will go where you send me
  Em
  JESUS take me now
                   C
  i am yours
                   D/F#
  i am yours
  G
  i lay my life on the altar
  Em
  everything i give to you alone
   C            D/F#
  here i am
   C            D/F#
  here i am


[Bridge]
D/F#         Em          C
here i am send me ( i will go for you , i will go for you )
D/F#         Em          C
here i am send me ( i will go for you , i will go for you )


[Stop]


[Last chorus]
  A
  i will go where you send me
  F#m
  JESUS take me now
                   D
  i am yours
                   E
  i am yours
  A
  i lay my life on the altar
  F#m
  everything i give to you alone
   D            E
  here i am
   D            E
  here i am
Tap to rate this tab
 
# A B C D E F G H I J K L M N O P Q R S T U V W X Y Z