Song name
# A B C D E F G H I J K L M N O P Q R S T U V W X Y Z

Planetshakers - This Love tab

Artist: Planetshakers
Album: Even Greater (2010)
Song: This Love

Intro
e|-----------------------------------------------|
B|-----------------------------------------------|
G|-----------------------------------------------|  repeat this through
D|-----------------------------------------------|  verse until pre-chorus
A|-----------------------------------------------|
D|-0-10-10-12-0-10-10-12-3-10-10-12-0-12-12-10---|  

Pre-chorus
e|-----|-----|-----|-----|------|
B|-----|-----|-----|-----|------|
G|-----|-----|-----|-----|------|
D|-0---|-3---|-5---|-8---|-10---|  
A|-0-x4|-3-x4|-5-x4|-8-x2|-10-x2|
D|-0---|-3---|-5---|-8---|-10---|  
p.m................................

Chorus
e|-----------------------------------------------|
B|-----------------------------------------------|
G|-----------------------------------------------|  
D|-0-0-0-0-0-0-3-3-3-3-3-3-5-5-5-5-5-5-5-5-5-5-5-|  
A|-0-0-0-0-0-0-3-3-3-3-3-3-3-3-3-3-3-3-2-2-2-2-2-|
D|-0-0-0-0-0-0-3-3-3-3-3-3-----------------------| 

Intro

Verse

Pre-chorus

Chorus

Bridge (same as intro)

Solo

I'm not sure of the solo, I usually improvise
so i'm going to tab the rhythm instead

e|-----|-----|-----|
B|-----|-----|-----|
G|-----|-----|-----|
D|-0---|-3---|-5---|  
A|-0-x8|-3-x4|-5-x4|
D|-0---|-3---|-5---|  

Chorus

Outro

e|-----------------------------------------------|
B|-----------------------------------------------|
G|-----------------------------------------------|  
D|-----------------------------------------------|
A|-0-10-10-12-0-10-10-12-3-10-10-12-0-12-12-10---|
D|-0-10-10-12-0-10-10-12-3-10-10-12-0-12-12-10---|
Tap to rate this tab
 
# A B C D E F G H I J K L M N O P Q R S T U V W X Y Z