Song name
# A B C D E F G H I J K L M N O P Q R S T U V W X Y Z

Planetshakers - This Love tab

Artist: Planetshakers
Album: Even Greater
Song: This Love


Intro, Verse, bridge and outro
e|-----------------------------------------|
B|-----------------------------------------|
G|-----------------------------------------|  
D|-----------------------------------------|  
A|---3-3h5-0h3-3h5------3-3h5-----5-5p3----|
D|-0--------------0h3--------3h5-----------| 

Rhythm Guitar

e|----------------|
B|----------------|
G|----------------|
D|-0-----3--5-----|  
A|-0-----3--5-----|
D|-0-----3--5-----|  



Pre-chorus (palm mutes)
e|-----|-----|-----|-----|------|
B|-----|-----|-----|-----|------|
G|-----|-----|-----|-----|------|
D|-x0--|-x3--|-x5--|-x8--|-x10--|  
A|-x0--|-x3--|-x5--|-x8--|-x10--|
D|-x0--|-x3--|-x5--|-x8--|-x10--|  


Chorus
e|-----------------------------------------------|
B|-----------------------------------------------|
G|-----------------------------------------------|  
D|-0-0-0-0-0-0-3-3-3-3-3-3-5-5-5-5-5-5-5-5-5-5-5-|  
A|-0-0-0-0-0-0-3-3-3-3-3-3-3-3-3-3-3-3-2-2-2-2-2-|
D|-0-0-0-0-0-0-3-3-3-3-3-3-----------------------| 
Hey Hey I'm in love with you......

e|-----------------------------------------------|
B|-----------------------------------------------|
G|-3-5-------------------------------------------|  
D|-3-5-7-7\--------------------------------------|
A|-1-3-4-4\--------------------------------------|
D|-----------------------------------------------|
No one can take this......

Intro

Verse

Pre-chorus

Chorus

Slighty different riff played once before bridge..
e|-----------------------------------------|
B|-----------------------------------------|
G|-----------------------------------------|  
D|------------3----------------------------|  
A|---3-3h5-3h5-5-----3-3h5-----5-5p3-------|
D|-0--------------0h3--------3h5-----------| 

Bridge 

Instrumental

e|---------------|
B|---------------|
G|---------------|
D|-0----3----5---|  
A|-0----3----5---|
D|-0----3----5---|  

Chorus

Outro

| /  slide up
| \  slide down
| h  hammer-on
| p  pull-off
| ~  vibrato
| +  harmonic
| x  Mute note

By James Reid
Tap to rate this tab
 
# A B C D E F G H I J K L M N O P Q R S T U V W X Y Z