Planetshakers - No Compromise tab

-------------------------------------------------------------------------------
			  NO COMPROMISE - Planetshakers
-------------------------------------------------------------------------------
Tabbed by: makutoid
Email: makutoid_@hotmail.com

Tuning: Drop D

Intro Riff
e|-------------------------|-------------------------|
B|-------------------------|-------------------------|
G|-----------------5/7777--|-----------------5/7777--|
D|-0---7--5--3-0---5/7777--|-0---7--5--3-0---5/7777--|
A|-0---7--5--3-0---3/5555--|-0---7--5--3-0---3/5555--|
D|-0---7--5--3-0-----------|-0---7--5--3-0-----------|

Verse
e|--------------|--------------|--------------|-----------------|
B|--------------|--------------|--------------|-----------------|
G|--------------|--------------|--------------|-----------------|
D|-0-0-----12-/-|-8-8------8-/-|-5-5------5-/-|-10-10--x-10--10-|
A|-0-0-----12-/-|-8-8------8-/-|-5-5------5-/-|-10-10--x-10--10-| x2
D|-0-0-----12-/-|-8-8------8-/-|-5-5------5-/-|-10-10--x-10--10-|

PreChorus
e|--------------------------------|--------------------------------|
B|--------------------------------|--------------------------------|
G|-----------------------5/7--5/7-|-----------------------5/7--5/7-|
D|--0-0--0-0-0--0-0-0--0-5/7--5/7-|--0-0--0-0-0--0-0-0--0-5/7--5/7-|
A|--0-0--0-0-0--0-0-0--0-3/5--3/5-|--0-0--0-0-0--0-0-0--0-3/5--3/5-|
D|--0-0--0-0-0--0-0-0--0----------|--0-0--0-0-0--0-0-0--0----------|

Chorus
e|-------------------------|------------------------|
B|-------------------------|------------------------|
G|------3--5----------7--7-|------3--5--------------|
D|-0--0-3--5--3---x-x-7--7-|-0--0-3--5--3--x-x-3--2-|
A|-0--0-1--3--3---x-x-5--5-|-0--0-1--3--3--x-x-3--2-|
D|-0--0-------3---x-x------|-0--0-------3--x-x-3--2-|

e|-------------------------|------------------------|
B|-------------------------|------------------------|
G|------3--5----------7--7-|-33333333---------------|
D|-0--0-3--5--3---x-x-7--7-|-33333333---------------|
A|-0--0-1--3--3---x-x-5--5-|-11111111--------0------|
D|-0--0-------3---x-x------|-----------5-3-5---5-3--|

Bridge
e|--------------------------|--------------------------|
B|--------------------------|--------------------------|
G|-----------------5/7-5/7--|-----------------5/7-5/7--|
D|-0---7--5--3-0---5/7-5/7--|-0---7--5--3-0---5/7-5/7--|
A|-0---7--5--3-0---3/5-3/5--|-0---7--5--3-0---3/5-5/7--|  repeat as needed
D|-0---7--5--3-0------------|-0---7--5--3-0------------|

  (I just have to...)
e|-------------|
B|-------------|
G|-------------|
D|-0--2--3--5--|
A|-0--2--3--5--|
E|-0--2--3--5--|


Typical planetshakers praise, really realy easy :)
The riffs are all quite similar, although it takes time to get used to the chorus riff 
especially if you're singing as well. Apparently it's not as simple as I thought - 
according to my rhythm guitarist, but still.

The line in the chorus "no matter what the cost I'll go" is mimicked by the guitar, 
you'll see the tabs. The word "go" corresponds with the start of the main riff, so nice and 
flowy :)

Any questions or anything then feel free to email me
makutoid_@hotmail.com

************************************

| /   slide up
| \   slide down
| h   hammer-on
| p   pull-off
| ~   vibrato
| +   harmonic
| x   Mute note
| b   Bend
| pb  Pre-bend
| br  Bend release
| pbr Pre-bend release
| brb Bend release bend

************************************
Tap to rate this tab
 
# A B C D E F G H I J K L M N O P Q R S T U V W X Y Z