Planetshakers - Now Im Free tab

Song: Now I'm Free
Artist: Planetshakers
Album: Even Greater
Tuning: Drop D(dADGBE)

Intro:
|---------------------------------------|
|---------------------------------------|
|---------------------------------------|
|-----------------3-----------------5-3-|
|-3h5-3h5-3h5-3h5---3h5-3h5-3h5-3h5-----|
|---------------------------------------|x4

Verse:
|------------|
|------------|
|------------|
|-7-5-55-5-5-|
|-5-3-22-3-3-|
|------------|x2 Then do intro riff

Pre-chorus:
|---------------------|-------------------|
|---------------------|-------------------|
|---------------------|-------------------|
|---------------------|-55555555----------|
|-555-777-33333333 x3 |-33333333-33333333-|
|-555-777-33333333----|----------33333333-|
  ... ... ........      ........ ........

Chorus:
|-----------------------------------------|
|-----------------------------------------|
|-----------------------------------------|
|-7-7777777-7-7777777-5-5555555-5-5555555-|
|-5-5555555-7-7777777-3-3333333-5-5555555-|
|-0-0000000-7-7777777-----------5-5555555-|x2

|-----------------------------------|
|-----------------------------------|
|-----------------------------------|
|-------------------------5~5555555-|
|-2-2-2-2-4-4-4-4-5-5-5-5-3~3333333-|
|-2-2-2-2-4-4-4-4-5-5-5-5-----------|

Intro

Verse

Pre-chorus

Chorus

Bridge:
|-----------------------------------|
|-----------------------------------|
|-----------------------------------|
|----------3-5s7----------5h7p5-3---|
|-5~---3-5-------5~---3-5---------5-|
|-----------------------------------|x2

|-------------------------|
|-------------------------|
|-------------------------|
|-----------3---------5-3-|
|-3-----3-5---5---3-5-----|
|-3---5-------5-----------|

|-----------------------------------|
|-----------------------------------|
|-----------------------------------|
|----------3-5s7----------5h7p5-3---|
|-5~---3-5-------5~--3-5----------5-|
|-----------------------------------|

Clean Guitar:
|-88-8-8-88----1010-10-10-1010----88-8-8-88-----|
|-66-6-6-66----6-6--6--6--6-6-----66-6-6-66-----|
|-77-7-7-77 x4 7-7--7--7--7-7- x2 77-7-7-77 x2 -|
|-----------------------------------------------|
|-----------------------------------------------|
|-----------------------------------------------|

Repeat except last part of bridge riff. Do this instead.
|--------------------------|
|--------------------------|
|----------------55-44-0-2-|
|----------3-5s7-----------|
|-5~---3-5-----------------|
|--------------------------|

Repeat with both guitars.

Chorus

Intro

That's it! God bless you!
Tap to rate this tab
 
# A B C D E F G H I J K L M N O P Q R S T U V W X Y Z