Song name
# A B C D E F G H I J K L M N O P Q R S T U V W X Y Z

Planetshakers - Nothing Is Impossible tab

Planetshakers - Nothing Is Impossible
Key: C

Intro (chorus):
e-----------------------------------------------------------------|
B-----------------------------------------------------------------|
G-----------------------------------------------------------------|
D-----------------------------------------------------------------| (P.M.)
A-3333333333333333------------------------------------------------|
E-----------------333333333333333355555555555555551111111111111111|
Through you I can do anything, I can do all things
'Cause it's You who gives me strength Nothing is impossible

e-----------------------------------------------------------------|
B-----------------------------------------------------------------|
G-----------------------------------------------------------------|
D---------------------------------------------------------3-------| (P.M.)
A-3333333333333333----------------------------------------3-------|
E-----------------33333333333333335555555555555555111111111-------|
Through You blind eyes are open, strongholds are broken
I am living by faith Nothing is impossible

Instrumental:
e--------------------------------------|
B-6-6-66---------65----------6-6-6--65-|
G-5-5-55--5-5-5--55--7-7-77--5-5-5--55-| x2
D-3-3-33--5-5-5--55--7-7-77--3-3-3--33-|
A---------3-3-3--33--5-5-55------------|
E--------------------------------------|

Verse:
e----------------------|
B----------------------|
G-5~~~7~~~10-----------| x2
D-5~~~5~~~10--5-7--5-7-| 
A-3~~~5~~~8------------|
E----------------------|
I'm not gonna live by what I see
I'm not gonna live by what I feel

e-------------------------------------------|
B-------------------------------------------|
G------12------12-----------12------12------| x4
D-9-10----9-10----9-10-9-10----9-10----9-10-| 
A-------------------------------------------|
E-------------------------------------------|
Deep down I know that You're here with me
And I know that You can do any - thing

Chorus:
e----8---8---8---8---8---8---8---8-| This is what is played in 
B-88888888888888888888888888888888-| the song
D-55555555555555555555555555555555-|  
A----------------------------------| x7
E----------------------------------|
Through you I can do anything, I can do all things
'Cause it's You who gives me strength Nothing is impossible
Through You blind eyes are open, strongholds are broken
I am living by faith

e-88888888--------------------------------------|
B-88888888--------------------------------------| 
G-55555555--------------------------------------| 
D-----------------------------------------------|  
A-----------------------------------------------| 
E-----------------------------------------------|
Nothing is impossible

Chorus (alternate):
This chorus has a little more variety, do one or the other
e-----------------------------------------------------------------|
B-----------------------------------------------------------------|
G-5555555555555555------------------------------------------------|
D-5555555555555555555555555555555577777777777777773333333333333333|
A-3333333333333333555555555555555577777777777777773333333333333333|
E-----------------333333333333333355555555555555551111111111111111|
Through you I can do anything, I can do all things
'Cause it's You who gives me strength Nothing is impossible

e-----------------------------------------------------------------|
B-----------------------------------------------------------------|
G-5555555555555555------------------------------------------------|
D-55555555555555555555555555555555777777777777777733333333--------|
A-33333333333333335555555555555555777777777777777733333333--------|
E-----------------3333333333333333555555555555555511111111--------|
Through You blind eyes are open, strongholds are broken
I am living by faith Nothing is impossible

Instrumental

Verse
I'm not gonna live by what I see
I'm not gonna live by what I feel
Deep down I know that You're here with me
And I know that You can do any - thing

Chorus
Through you I can do anything, I can do all things
'Cause it's You who gives me strength Nothing is impossible
Through You blind eyes are open, strongholds are broken
I am living by faith Nothing is impossible

Instrumental 2:
e-88888888888888888888888888888888-| 
B-88888888888888888888888888888888-| 
G-55555555555555555555555555555555-| 
D----------------------------------| x4
A----------------------------------|
E----------------------------------|

Bridge:
e-88888888888888888888888888888888-| 
B-88888888888888888888888888888888-| 
G-55555555555555555555555555555555-| 
D----------------------------------| x4
A----------------------------------| 
E----------------------------------|
I believe I believe I be - lieve in You  x2

e--------------------------------------|
B-6-6-66---------65----------6-6-6--65-|
G-5-5-55--5-5-5--55--7-7-77--5-5-5--55-| x2
D-3-3-33--5-5-5--55--7-7-77--3-3-3--33-|
A---------3-3-3--33--5-5-55------------|
E--------------------------------------|
I believe I believe I be - lieve in You  x2

Chorus:

4 measures (16 beats) rest
Through you I can do anything, I can do all things

e---------------------------------|
B---------------------------------|
G------12------12------12------12-| x2 (P.M.)
D-9-10----9-10----9-10----9-10----| 
A---------------------------------|
E---------------------------------|
'Cause it's You who gives me strength Nothing is impossible

Chorus:
e----8---8---8---8---8---8---8---8-| This is what is played in 
B-88888888888888888888888888888888-| the song
D-55555555555555555555555555555555-|  
A----------------------------------| x3
E----------------------------------|
Through You blind eyes are open, strongholds are broken
I am living by faith

e-88888888--------------------------------------|
B-88888888--------------------------------------| 
G-55555555--------------------------------------| 
D-----------------------------------------------|  
A-----------------------------------------------| 
E-----------------------------------------------|
Nothing is impossible

Chorus (alternate):
This chorus has a little more variety, do one or the other

e-----------------------------------------------------------------|
B-----------------------------------------------------------------|
G-5555555555555555------------------------------------------------|
D-55555555555555555555555555555555777777777777777733333333--------|
A-33333333333333335555555555555555777777777777777733333333--------|
E-----------------3333333333333333555555555555555511111111--------|
Through You blind eyes are open, strongholds are broken
I am living by faith Nothing is impossible

End:
e--------------------------------------|
B-6-6-66---------65----------6-6-6--65-|
G-5-5-55--5-5-5--55--7-7-77--5-5-5--55-|
D-3-3-33--5-5-5--55--7-7-77--3-3-3--33-|
A---------3-3-3--33--5-5-55------------|
E--------------------------------------|
I believe I believe I be - lieve in You

e---------------------------------------|
B-6-6-66---------65----------6----------|
G-5-5-55--5-5-5--55--7-7-77--5--------5-|
D-3-3-33--5-5-5--55--7-7-77--3--------5-|
A---------3-3-3--33--5-5-55-----------3-|
E---------------------------------------|
I believe I believe I be - lieve in You
Tap to rate this tab
 
# A B C D E F G H I J K L M N O P Q R S T U V W X Y Z