Song name
# A B C D E F G H I J K L M N O P Q R S T U V W X Y Z

Planetshakers - Jump Around tab

Song title: Jump Around
Artist: Planetshakers
tabbed by: Benedict Porio 

key of G

Intro:

|------------------------|------------------------|
|------------------------|------------------------|
|------------------------|------------------------|
|---------------------5--|----------------7-5-----|
|-------777--5-7--5-7----|-------777--5-7---------|
|------------------------|------------------------|

|------------------------|------------------------|
|------------------------|------------------------|
|------------------------|------------------------|
|---------------------5--|---------6-5-7----------|
|-------777--5-7--5-7----|-------7----------------|
|------------------------|------------------------|

please correct me if my cifra has done something wrong with this tab,
GOD bless!
Tap to rate this tab
 
# A B C D E F G H I J K L M N O P Q R S T U V W X Y Z