Song name
# A B C D E F G H I J K L M N O P Q R S T U V W X Y Z

Planetshakers - You Are Good tab

-------------------------------------------------------------------------------
			  YOU ARE GOOD - Planetshakers
-------------------------------------------------------------------------------
Tabbed by: makutoid
Email: makutoid_@hotmail.com

Tuning: Drop D


Intro Riff/Verse
   D                C              B                C
e|-------------------------------|------------------------------|
B|-------------------------------|------------------------------|
G|-------------------------------|-------------------------5--5-|
D|-------------------------------|-------------------------5--5-|
A|--------3h5-3h5----------3h5p3-|--------3h5-3h5----------3--3-|
D|-0--3-5-----------0--3-5-------|-0--3-5-----------0--3-5------|


PreChorus
D                   C
  My life is not my own
                      F
  So come and take control
                    G
  For you alone are good


Chorus
        D             C
You are good, all the time
         B            C
And your love endures forever
        D             C
You are good, all the time
        F    G
You are good, You are good!


Bridge
   D         C         B       B  C F  F# G  A
e|--------------------|------------------------|
B|--------------------|------------------------|
G|--------------------|------------------------|
D|--------------------|------------------------|
A|-5~------5\3~------3\2~------2--3----------0-|
D|--------------------|-------------3--4--5----|
        D
There's no other name,
C                  B     B C F F# G A
No other name like Jesus


Awesome song, really simple to play as well. They do a solo and stuff on the album 
version, but I've just tabbed the main song structure as we play it our youth group and as 
done live, without the little show off bits in the middle.

If there's anything you think isn't quite right or got any questions, drop me a message! 
Thanks, happy playing :)

************************************

| /   slide up
| \   slide down
| h   hammer-on
| p   pull-off
| ~   vibrato
| +   harmonic
| x   Mute note
| b   Bend
| pb  Pre-bend
| br  Bend release
| pbr Pre-bend release
| brb Bend release bend

************************************
Tap to rate this tab
# A B C D E F G H I J K L M N O P Q R S T U V W X Y Z