Song name
# A B C D E F G H I J K L M N O P Q R S T U V W X Y Z

Planetshakers - Rejoice In You tab

Planetshakers
Rejoice in You


Chorus:

e|------------------------------------|
B|------------------------------------|
G|------------------------------------|
D|--5-5-5-5-5-5-5-5--5-5-5-5-5-5-5-5--|
A|--3-3-3-3-3-3-3-3--2-2-2-2-2-2-2-2--|
E|------------------------------------|
PM  * * * * * * * *  * * * * * * * * 
e|------------------------------------|
B|------------------------------------|
G|------------------------------------|
D|--2-2-2-2-2-2-2-2-------------------|
A|--0-0-0-0-0-0-0-0--5-5-5-5-5-5-5-5--|
E|-------------------3-3-3-3-3-3-3-3--|
PM  * * * * * * * *  * * * * * * * * 
e|------------------------------------|
B|------------------------------------|
G|------------------------------------|
D|------------------------------------|
A|--3-3-3-3-3-3-3-3--6-6-6-6-6-6-6-6--|
E|--1-1-1-1-1-1-1-1--4-4-4-4-4-4-4-4--|
PM  * * * * * * * *  * * * * * * * * 

e|------------------------------------|
B|------------------------------------|
G|------------------------------------|
D|--5-5-5-5-5-5-5-5--5-5-5-5-5-5-5-5--|
A|--3-3-3-3-3-3-3-3--2-2-2-2-2-2-2-2--|
E|------------------------------------|
PM  * * * * * * * *  * * * * * * * * 
e|------------------------------------|
B|------------------------------------|
G|------------------------------------|
D|--2-2-2-2-2-2-2-2-------------------|
A|--0-0-0-0-0-0-0-0--5-5-5-5-5-5-5-5--|
E|-------------------3-3-3-3-3-3-3-3--|
PM  * * * * * * * *  * * * * * * * * 
e|------------------------------------|
B|------------------------------------|
G|------------------------------------|
D|------------------------------------|
A|--3-3-3-3-3-3-3-3--6-6--6-6--6~~~---|
E|--1-1-1-1-1-1-1-1--4-4--4-4--4~~~---|
PM  * * * * * * * *   

Then...
  "Whooo-oooooh!"
e|--------------------------------|
B|--------------------------------|
G|--5-5---------------------------|
D|--5-5--5-5--3-3--3-3-3-3-3-3-3--|
A|--3-3--5-5--3-3--3-3-3-3-3-3-3--|
E|-------3-3--1-1--1-1-1-1-1-1-1--| 4x


Verse 1 & 2:

e|-------------------|
B|-------------------|
G|-------------------|
D|-------------------|
A|--3-3--5-5--7-7~~--|
E|--1-1--3-3--5-5~~--|3x

e|----------------|
B|----------------|
G|----------------|
D|--7-7--7-7--3~--|
A|--5-5--5-5--3~--|
E|------------1~--|


Refrain:

e|------------------------------------|
B|------------------------------------|
G|------------------------------------|
D|------------------------------------|
A|--3-3-3-3-3-3-3-3--5-5-5-5-5-5-5-5--|
E|--1-1-1-1-1-1-1-1--3-3-3-3-3-3-3-3--|
PM  * * * * * * * *  * * * * * * * * 

e|------------------------------------|
B|------------------------------------|
G|------------------------------------|
D|--2-2-2-2-2-2-2-2--5-5-5-5-5-5-5-5--|
A|--0-0-0-0-0-0-0-0--2-2-2-3-3-3-3-3--|
E|------------------------------------|
PM  * * * * * * * *  * * * * * * * * 

e|------------------------------------|
B|------------------------------------|
G|------------------------------------|
D|------------------------------------|
A|--3-3-3-3-3-3-3-3--5-5-5-5-5-5-5-5--|
E|--1-1-1-1-1-1-1-1--3-3-3-3-3-3-3-3--|
PM  * * * * * * * *  * * * * * * * * 

e|------------------------------------|
B|------------------------------------|
G|------------------------------------|
D|--7-7-7-7-7-7-7-7--7-7-7-7-7-7-7-7--|
A|--5-5-5-5-5-5-5-5--5-5-5-5-5-5-5-5--|
E|------------------------------------|
PM  * * * * * * * *  * * * * * * * * 


Chorus (same, just less the palm mute):

e|------------------------------------|
B|------------------------------------|
G|------------------------------------|
D|--5-5-5-5-5-5-5-5--5-5-5-5-5-5-5-5--|
A|--3-3-3-3-3-3-3-3--2-2-2-2-2-2-2-2--|
E|------------------------------------|

e|------------------------------------|
B|------------------------------------|
G|------------------------------------|
D|--2-2-2-2-2-2-2-2-------------------|
A|--0-0-0-0-0-0-0-0--5-5-5-5-5-5-5-5--|
E|-------------------3-3-3-3-3-3-3-3--|

e|------------------------------------|
B|------------------------------------|
G|------------------------------------|
D|------------------------------------|
A|--3-3-3-3-3-3-3-3--6-6-6-6-6-6-6-6--|
E|--1-1-1-1-1-1-1-1--4-4-4-4-4-4-4-4--|


e|------------------------------------|
B|------------------------------------|
G|------------------------------------|
D|--5-5-5-5-5-5-5-5--5-5-5-5-5-5-5-5--|
A|--3-3-3-3-3-3-3-3--2-2-2-2-2-2-2-2--|
E|------------------------------------|

e|------------------------------------|
B|------------------------------------|
G|------------------------------------|
D|--2-2-2-2-2-2-2-2-------------------|
A|--0-0-0-0-0-0-0-0--5-5-5-5-5-5-5-5--|
E|-------------------3-3-3-3-3-3-3-3--|

e|------------------------------------|
B|------------------------------------|
G|------------------------------------|
D|------------------------------------|
A|--3-3-3-3-3-3-3-3--6-6--6-6--6~~~---|
E|--1-1-1-1-1-1-1-1--4-4--4-4--4~~~---|


Then...
  "Whooo-oooooh!"
e|--------------------------------|
B|--------------------------------|
G|--5-5---------------------------|
D|--5-5--5-5--3-3--3-3-3-3-3-3-3--|
A|--3-3--5-5--3-3--3-3-3-3-3-3-3--|
E|-------3-3--1-1--1-1-1-1-1-1-1--| 4x

[Repeat Verse]

[Repeat Refrain 2x]

[Repeat Chorus]

[Repeat "Whooo-oooooh!" part many times!]
Tap to rate this tab
# A B C D E F G H I J K L M N O P Q R S T U V W X Y Z