Song name
# A B C D E F G H I J K L M N O P Q R S T U V W X Y Z

Planetshakers - Majesty tab

Majesty - Planetshakers
Tabed by: Haris Frane



Intro:

B x 8 bars
B-F#-C#m7-E
G#m7-F#-E-E (x3)

Part 1

E|----------------------------------------------------------|
B|----------------------------------------------------------|
G|--------12----12-14---------------------------------------|
D|-----------11---------------------------------------------|
A|----------------------------------------------------------|
E|----------------------------------------------------------|


Part 2


E|----------------------------------------------------------|
B|-----------12----12-14-----14-16-17---16----12-17-16------|
G|--------------11------------------------------------------|
D|----------------------------------------------------------|
A|----------------------------------------------------------|
E|----------------------------------------------------------|



Verse:B-E-G#M7-F#m7-E-B-E-G#m7-F#-E




Pre-Chorus:G#m7-F#-E
           G#m7-F#/Bb-B
           G#m7-F#-E
           B/D#-F#

Chorus:B-F#-C#m-E(2x)
       G#m7-F#-E

2nd Chorus:B-F#-C#m-E(3x)
       G#m7-F#-E
Tap to rate this tab
# A B C D E F G H I J K L M N O P Q R S T U V W X Y Z