Song name
# A B C D E F G H I J K L M N O P Q R S T U V W X Y Z

Planetshakers - Nothing Is Impossible tab

Song Title: Nothing is Impossible
Band Name: Planetshakers
Tabbed by: Keno Ventolero

Standard Tuning


Intro/Chorus: (do twice)
   CP: C-G-Am-F

e|-----------------------------------|
B|-----------------------------------|
G|-----------------------------------|
D|-----------------------------------|
A|--3-3-3-3-3-3-3-3-3-3-3-3-3-3-3-5--|
E|-----------------------------------|
PM  * * * * * * * * * * * * * * * *  

e|-----------------------------------|
B|-----------------------------------|
G|-----------------------------------|
D|-----------------------------------|
A|-----------------------------------|
E|--3-3-3-3-3-3-3-3-3-3-3-3-3-3-3-3--|
PM  * * * * * * * * * * * * * * * *  

e|-----------------------------------|
B|-----------------------------------|
G|-----------------------------------|
D|-----------------------------------|
A|-----------------------------------|
E|--5-5-5-5-5-5-5-5-5-5-5-5-5-5-5-5--|
PM  * * * * * * * * * * * * * * * *  

e|-----------------------------------|
B|-----------------------------------|
G|-----------------------------------|
D|-----------------------------------|
A|-----------------------------------|
E|--1-1-1-1-1-1-1-1-1-1-1-1-1-1-1-1--|
PM  * * * * * * * * * * * * * * * *  


Interlude:
   CP: F-C-Dm-F (2x)

Guitar 1:
e|------------------------------------------------------|
B|--8---xx--8---xx--8--8---xx--8--x--8--8--xx-8--8--8---|
G|--10--xx--10--xx--10-10--xx--9--x--9--9--xx-9--9--9---|
D|--10--xx--10--xx--10-10--xx--10-x--10-10-xx-10-10-10--|
A|--8---xx--8---xx--8--8---xx--10-x--10-10-xx-10-10-10--|
E|-----------------------------8--x--8--8--xx-8--8--8---|
Guitar 2:
e|---------------------------------------|
B|---------------------------------------|
G|---------------------5-x-5-5-xx-5-5-5--|
D|--3-xx-3-xx-3-3--xx--5-x-5-5-xx-5-5-5--|
A|--3-xx-3-xx-3-3--xx--3-x-3-3-xx-3-3-3--|
E|--1-xx-1-xx-1-1--xx--------------------|

Guitar 1:
e|--5-xx-5-xx-5-5-x----------------------------|
B|--6-xx-6-xx-6-6-x--8--xx-8--8--xx--8--8--8---|
G|--7-xx-7-xx-7-7-x--10-xx-10-10-xx--10-10-10--|
D|--7-xx-7-xx-7-7-x--10-xx-10-10-xx--10-10-10--|
A|--5-xx-5-xx-5-5-x--8--xx-8--8--xx--8--8--8---|
E|---------------------------------------------|
Guitar 2:
e|--------------------------------------------|
B|--------------------------------------------|
G|--7-xx-7-xx-7-7--xx-10-x-10-10-xx-10-10-10--|
D|--7-xx-7-xx-7-7--xx-10-x-10-10-xx-10-10-10--|
A|--5-xx-5-xx-5-5--xx-8--x-8--8--xx-8--8--8---|
E|--------------------------------------------|


Verse:
   CP: C-Dm-F
       Am-G-F
e|------------------------------------|--------------|
B|------------------------------------|--------------|
G|---5~---7~--------------------------|--------0-2~--|
D|---5~---7~---3~------7~---5~---3~---|------3-------|
A|---3~---5~---3~------7~---5~---3~---|----3---------|
E|-------------1~------5~---3~---1~---|--1-----------| [2x]
(the tiny bit at the end is played twice 
 after the second F chord..)


Refrain:
   CP: Am-G-F
       Am-G-Dm-F
  
e|------------------------|
B|------------------------| 
G|-------12------12-------|  
D|--9-10----9-10----9-10--|
A|------------------------|
E|------------------------| [8x]
PM  * *     * *     * *


Chorus:
   CP: C-G-Am-F (2x)

e|--------------------------------------|
B|--------------------------------------|
G|--------------------------------------|
D|--5555555555555555--------------------|
A|--3333333333333333--5555555555555555--|
E|--------------------3333333333333333--|

e|--------------------------------------|
B|--------------------------------------|
G|--------------------------------------|
D|--------------------------------------|
A|--7777777777777777--3333333333333333--|
E|--5555555555555555--1111111111111111--|

e|--------------------------------------|
B|--------------------------------------|
G|--------------------------------------|
D|--5555555555555555--------------------|
A|--3333333333333333--5555555555555555--|
E|--------------------3333333333333333--|

e|--------------------------------------|
B|--------------------------------------|
G|--------------------------------------|
D|--------------------------------------|
A|--7777777777777777--33333333-x--------|
E|--5555555555555555--11111111-x--------|


[Repeat Interlude]

[Repeat Verse]

[Repeat Refrain]

[Repeat Chorus]

Instrumental + Bridge:
   CP: F-C-Dm-F

Guitar 1:
e|-------------------------------|
B|-------------------------------|
G|--1212121212121212121212-...---|
D|--1010101010101010101010-...---|
A|-------------------------------|
E|-------------------------------|
Guitar 2:
e|---------------------------|
B|---------------------------|
G|---------------------5-x---|
D|--3-xx-3-xx-3-3--xx--5-x---|
A|--3-xx-3-xx-3-3--xx--3-x---|
E|--1-xx-1-xx-1-1--xx--------|


Guitar 1:
e|-------------------------------|
B|-------------------------------|
G|--1212121212121212121212-...---|
D|--1010101010101010101010-...---|
A|-------------------------------|
E|-------------------------------|
Guitar 2:
e|---------------------------|
B|---------------------------|
G|--7-xx-7-xx-7-7--xx-10-x---|
D|--7-xx-7-xx-7-7--xx-10-x---|
A|--5-xx-5-xx-5-5--xx-8--x---|
E|---------------------------|

"I believe! I believe!"

e|--------------------------------------------------|
B|--------------------------------------------------|
G|--------------------------------------------------|
D|------------55555555--77777777--1010101010101010--|
A|--33333333--33333333--55555555--8-8-8-8-8-8-8-8---|
E|--11111111----------------------------------------| [2x]

[Repeat Chorus once (gently, with lead from Refrain)]

[Repeat Chorus]

[Repeat Bridge]
Tap to rate this tab
# A B C D E F G H I J K L M N O P Q R S T U V W X Y Z