Song name
# A B C D E F G H I J K L M N O P Q R S T U V W X Y Z

Planetshakers - The Victory tab

Planetshakers
The Victory
tabbed by Ferdinand Bato
email/fb: tobatsdrive@yahoo.com
time: 2:59
tuning: standard
legend: s - slide
        h - hammer
Church: Jesus Christ LifeGiver Ministry (JCLM) 

guys pakinggan nyo mabuti para makuha ung timing neto :))


intro:   

               G#m
e|------------------------------------|
B|------------------------------------|
G|------------------------------------|  
D|------------------------------------|
A|------------------------------------|
E|-0/////////4-4-4-4-6-7-2------------|
               C#m
e|------------------------------------|
B|------------------------------------|
G|------------------------------------|
D|------------------------------------|
A|-4-4-4-4----------------------------|
E|----------6-7-2---------------------|
                E
e|------------------------------------|
B|------------------------------------|
G|------------------------------------|
D|------------------------------------|
A|------------------------------------|
E|-0-0-0-0--6-7-0---------------------|
                F#
e|------------------------------------|
B|------------------------------------|
G|------------------------------------|
D|------------------------------------|
A|------------------------------------|
E|-2-2-2-2---3-3-3-3------------------|


               G#m
e|------------------------------------|
B|------------------------------------|
G|------------------------------------|  
D|------------------------------------|
A|------------------------------------|
E|-4-4-4-4-6-7-2----------------------|
               C#m
e|------------------------------------|
B|------------------------------------|
G|------------------------------------|
D|------------------------------------|
A|-4-4-4-4----------------------------|
E|----------6-7-2---------------------|
                E
e|------------------------------------|
B|------------------------------------|
G|------------------------------------|
D|------------------------------------|
A|------------------------------------|
E|-0-0-0-0--6-7-0---------------------|
                F#           G#m
e|---------------------|---------------|
B|---------------------|---------------|
G|---------------------|---------------|
D|---------------------|---------------|
A|---------------------|---------------|
E|-2-2-2-2---3-6h7-6---|-----4---------|

lead:
e|---11---11-------------11---11----------------|
B|------9----9--11s12s11----9----9--11s12s11----|
G|----------------------------------------------| 2x
D|----------------------------------------------|
A|----------------------------------------------|
E|----------------------------------------------|



{Verse:} 
G#m                          
Where You are is liberty,  
C#m                           E  
Cause You have won the victory,  
                                 F#  
We’re living in Your freedom  

{Verse:} 
G#m                                   C#m  
We walk by faith and not by sight,  
                                 E  
Praise You Lord with all our might,  
                           F#  
We’re living in Your freedom  

{Pre-Chorus:}  
G#m  F#    C#m
Shout it out!  
G#m     F#    E      
We will sing it loud!  
G#m  F#    C#m   
Let the whole world know,  
 E           
That You saved our,  
 F#
Saved our soul!  

{Chorus:}  
G#m                         B  
Lord for everything You’ve done,  
                       E  
We will sing Your praises  
F#
Whoa-oh,  
E 
Whoa-oh,  
      F#           E       G
We live in the freedom You’ve won  
G#m                               B  
And when all it’s said and done,  
                  E  
You have overcome  
F#
Whoa-oh,  
  E
Whoa-oh,  
F#            E        G
We live in the freedom You’ve won  

{Bridge:} 

lead:
e|---11---11-------------11---11----------------|
B|------9----9--11s12s11----9----9--11s12s11----|
G|----------------------------------------------| 2x
D|----------------------------------------------|
A|----------------------------------------------|
E|----------------------------------------------|


G#m  
We will, dance in the freedom,  
   C#m  
That You’ve won,  
   
Dance in the freedom,  
              E  
Cause You’ve won,  
                                 F#  
You have won it all,  

Shout it out! Shout it out!  

Tap to rate this tab
 
# A B C D E F G H I J K L M N O P Q R S T U V W X Y Z