Song name
# A B C D E F G H I J K L M N O P Q R S T U V W X Y Z

Planetshakers - Im Gonna Praise tab

-------------------------------------------------------------------------------
Iím Gonna Praise Ė Planetshakers / Joth Hunt
-------------------------------------------------------------------------------

Standard Tuning
130 BPM in 4/4 time.
Key: I believe itís in the key of C, but like most Planetshakers songs there is some key 
modulation, nothing major, but itís still there.

Legend:
* = Pinch Harmonic
. = Palm muted
/ = Slide Down
\ = Slide Up
< = Build it Up
> = Bring it Down
x = Octaves/string not played/string muted

Guitar 1) Rhythm
Guitar 2) Lead
Guitar 3) Extra, eg high chords over lead and lower rhythm parts, harmonized lead etc etc.



Intro

Guitar 1
   C (Hold this chord for the duration of the first few bars till the lead kicks in
e|---------------------------------|
B|---------------------------------|
G|-5-------------------------------|
D|-5-------------------------------|
A|-3-------------------------------|
E|---------------------------------|

Guitar 1
  Bb B C         C                 Bb               F/A
e|------------------------------------------------------------|
B|------------------------------------------------------------|
G|-3-4-5--5-5-5-5-5-5-5-5-5--3-3-3-3-3-3-3-3--2-2-2-2-2-2-2-2-|
D|-3-4-5--5-5-5-5-5-5-5-5-5--3-3-3-3-3-3-3-3--3-3-3-3-3-3-3-3-|
A|-1-2-3--3-3-3-3-3-3-3-3-3--1-1-1-1-1-1-1-1--0-0-0-0-0-0-0-0-|
E|------------------------------------------------------------|
         Bb        Bb B C
e|------------------------|
B|------------------------|
G|-3-3-3-3-3-3-3-3--3-4-5-|
D|-3-3-3-3-3-3-3-3--3-4-5-|
A|-1-1-1-1-1-1-1-1--1-2-3-|
E|------------------------|

Guitar 2
  Bb  B  C             C                        Bb
e|-------------------------------------------------------------|
B|-11-12-13---13-13-13-13-13-13-13-13--11-11-11-11-11-11-11-11-|
G|-x--x--x----x--x--x--x--x--x--x--x---x-óx--x--x--x--x--x--x--|
D|-8--9--10---10-10-10-10-10-10-10ó10--8--8--8--8--8--8--8--8--|
A|-------------------------------------------------------------|
E|-------------------------------------------------------------|
             A                     Bb              Bb  B  C
e|-------------------------------------------------------------|
B|-10-10-10-10-10-10-10-10-11-11-11-11-11-11-11-11--11-12-13---|
G|-x--x--x--x--x--x--x--x--x-óx--x--x--x--x--x--x---x--x--x----|
D|-7--7--7--7--7--7--7--7--8--8--8--8--8--8--8--8---8--9--10---|
A|-------------------------------------------------------------|
E|-------------------------------------------------------------|

Verse:
Guitar 1. Guitar 2 is optional here. It can either play chords or you can improvise a 
lead line to fit.

e|----------------------------------------|
B|----------------------------------------|
G|-5--5-5---3--3-3---2--2-2---3--3-3---5--|
D|-5--5-5---3--3-3---3--3-3---3--3-3---5--| X2
A|-3--3-3---1--1-1---0--0-0---1--1-1---3--|
E|----------------------------------------|


Pre-Chorus

Guitar 1
    G       Am          F
e|-------------------------------|
B|-------------------------------|
G|-------------------------------|
D|-5-5-5--7-7-7--3-3-3-3-3-3-3-3-| X2
A|-5-5-5--7-7-7--3-3-3-3-3-3-3-3-|
E|-3-3-3--5-5-5--1-1-1-1-1-1-1-1-|
     . .    . .    . .   . .
     G      Am          F                D
e|------------------------------------------------|
B|------------------------------------------------|
G|--------------------------------7-7-7-7-7-7-7-7-|
D|-5-5-5--7-7-7--3-3-3-3-3-3-3-3--7-7-7-7-7-7-7-7-|
A|-5-5-5--7-7-7--3-3-3-3-3-3-3-3--5-5-5-5-5-5-5-5-|
E|-3-3-3--5-5-5--1-1-1-1-1-1-1-1------------------|
     . .    . .    . .   <<<<


Guitar 2

e|----------------------------------------------------------|
B|-15-x-15-15-x-15-15-x-x-15-15-x-x-x-13-x-13-13-x-13-13-13-|
G|----------------------------------------------------------|
D|----------------------------------------------------------|X4
A|----------------------------------------------------------|
E|----------------------------------------------------------|


Chorus

Guitar 1
       F              C            Am             G
e|-------------------------------------------------------|
B|-------------------------------------------------------|
G|---------------5--5-5--5-5-----------------------------|
D|-3--3-3--3-3---5--5-5--5-5---7--7-7--7-7---5--5-5ó-5-5-|X2
A|-3--3-3--3-3---3--3-3--3-3---7--7-7--7-7---5--5-5--5-5-|
E|-1--1-1--1-1-----------------5--5-5--5-5---3--3-3--3-3-|

Guitar 2
            F                C               Am                  G
e|---------------------------------------------------------------------------|
B|-13--13-13--13-13--13--13-13--13-13--13--13-13--13-13---12--12-12--12-12---|
G|-10--10-10--10-10--12--12-12--12-12--12--12-12--12-12ó--12--12-12--12-12---|
D|-10--10-10--10-10--10--10-10--10-10--x---x--x---x--x----x---x--x---x--x----| X2
A|-------------------------------------12--12-12--12-12---10--10-10--10-10---|
E|---------------------------------------------------------------------------|


Tag is the exact same as the chorus, but with a different rhythm. Itís fair easy to 
figure out though, and it only goes through the progression once before the Bb, B, C 
re-intro to the second verse.

Verse Two


Guitar 1.

Pretty much the same as the first verse, except thereís a cut of sorts and goes straight 
to the Bb right after the Bb-B-C re-intro. Itís quite cool, listen to the track for the 
exact timings

e|-----------------------------------------------|
B|-----------------------------------------------|
G|-3-4-5-----------3--3-3---2--2-2---3--3-3---5--|
D|-3-4-5-----------3--3-3---3--3-3---3--3-3---5--|
A|-1-2-3-----------1--1-1---0--0-0---1--1-1---3--|
E|-----------------------------------------------|

e|----------------------------------------|
B|----------------------------------------|
G|-5--5-5---3--3-3---2--2-2---3--3-3---5--|
D|-5--5-5---3--3-3---3--3-3---3--3-3---5--| X2
A|-3--3-3---1--1-1---0--0-0---1--1-1---3--|
E|----------------------------------------|


Guitar Two

This also does something kinda cool, it starts second time through the Verse and works 
its way up the octave as tabbed below.

e|-------------------------------------------------------------------------|
B|-------------------------------------------------------------------------|
G|-5-5-5-5-5-5-5-5--7-7-7-7-7-7-7--8-8-8-8-8-8-8-8--10--10-12--14--16--17--|
D|-x-x-x-x-x-x-x-x--x-x-x-x-x-x-x--x-x-x-x-x-x-x-x--x---x--x---x---x---x---|
A|-3-3-3-3-3-3-3-3--5-5-5-5-5-5-5--6-6-6-6-6-6-6-6--8---8--10--12--14--15--|
E|-------------------------------------------------------------------------|


Chorus

Guitar 1
       F              C            Am             G
e|-------------------------------------------------------|
B|-------------------------------------------------------|
G|---------------5--5-5--5-5-----------------------------|
D|-3--3-3--3-3---5--5-5--5-5---7--7-7--7-7---5--5-5ó-5-5-|X2
A|-3--3-3--3-3---3--3-3--3-3---7--7-7--7-7---5--5-5--5-5-|
E|-1--1-1--1-1-----------------5--5-5--5-5---3--3-3--3-3-|

Guitar 2
            F                C               Am                  G
e|---------------------------------------------------------------------------|
B|-13--13-13--13-13--13--13-13--13-13--13--13-13--13-13---12--12-12--12-12---|
G|-10--10-10--10-10--12--12-12--12-12--12--12-12--12-12ó--12--12-12--12-12---|
D|-10--10-10--10-10--10--10-10--10-10--x---x--x---x--x----x---x--x---x--x----| X2
A|-------------------------------------12--12-12--12-12---10--10-10--10-10---|
E|---------------------------------------------------------------------------|


Tag Twice through this time. F, C, Am, G for both guitars


Bridge

Both Guitars, or once can do a Harmony
The riff repeats itself a fair few times, youíll get it if you listen to the track
  Intro                 Riff
e|-------| |-------------------------------------|
B|-------| |-------------------------------------|
G|-------| |-------------------------------------|
D|-4-5-6-| |------1--2-2---3-5----1--2-2--3-3-5--|
A|-4-5-6-| |---------------1-3------------1-1-3--|
E|-1-2-3-| |-------------------------------------|


Then we move up the fretboard on this little scale type thing. The chords for this can 
be found on my profile, under my Iím Gonna Praise chords tab.




e|----------------------------------------------------------------------|
B|----------------------------------------------------------------------|
G|-------------------------3-3-4-4-5-5-3-3-2-2--------------------------|
D|-------------2-2-3-3-5-5---------------------5-5-3-3-3-3--3-3--5------|
A|-3-3-5-5-6-6----------------------------------------------1-1--3------|
E|----------------------------------------------------------------------|

e|----------------------------------------------------------------------|
B|---------------------------------------------------------------6-6-6--|
G|-------------------------3-3-4-4-5-5-3-3-2-2-------------5-5-5-5-5-5--|
D|-------------2-2-3-3-5-5---------------------5-5-3-3-3-3-3-3-3-3-3-3--|
A|-3-3-5-5-6-6----------------------------------------------------------|
E|----------------------------------------------------------------------|


Then back to the tag. Itís the same, but itís just stabs, and youíll have to watch out 
for the quick Dm, E, F thing mid way through it. Apart from that, itís a fairly simple 
song, just listen to the track and youíll be sweet.
Speaking of tracks, a friend of mine has made a sick track for this song. Iíll post his 
profile below, as well as my email if you have any questions. Donít hesitate to email me 
and Iíll get back to you as soon as I can.


Trax : http://loopcommunity.com/mjaldridge7

Email : christian.hrowney@gmail.com
Tap to rate this tab
# A B C D E F G H I J K L M N O P Q R S T U V W X Y Z