Song name
# A B C D E F G H I J K L M N O P Q R S T U V W X Y Z

Planetshakers - Stand tab

this is my first tab. hahah enjoy try lang to hahah


Enjoy!!!!



intro
--------------------------------------------------------------|
--------------------------------------------------------------|
---4-4--/6-6--/8-8--/9-9--/9-9---/6---/9--/4-4----------------|
---x-x---x-x---x-x---x-x---x-x----x----x---x-x----------------|
---2-2--/4-4--/6-6--/7-7--/6-6---/4---/6--/2-2----------------|
--------------------------------------------------------------|

verse
----------------------------------------------|
----------------------------------------------|
--------4-3--------4-3-------3h4--------------|
----------------------------------------------|
---2-2-------2-2-------2-2--------------------|
----------------------------------------------|


---------------------------------------|
--------4-3--------4-3-------3h4-------|
---------------------------------------|
---------------------------------------|
----2-2--------2-2-------2-2-----------|


----------------------------------------------|
--------4-3--------4-3-------3h4--------------|
--2-2----------2-2-------2-2------------------|
----------------------------------------------|
----------------------------------------------|


Pre- chorus

----------------------------------------------|
--------4-3--------4-3-------3h4--------------|
---6-6--------6-6-------6-6-------------------|
----------------------------------------------|
----------------------------------------------|


----------------------------------------------|
--------4-3--------4-3-------3h4--------------|
---4-4--------4-4-------4-4-------------------|
----------------------------------------------|
----------------------------------------------|


----------------------------------------------|
--------4-3--------4-3-------3h4--------------|
----2-2--------2-2------2-2-------------------|
----------------------------------------------|
----------------------------------------------|

chorus


adlib

bass first 2x then guitar
----------------------------------------------------------------------|
----------------------------------------------------------------------|
--------------------3---3h4--------3---3h4------3---4---/6--4---------|   2x
-----1---1h2----4-4---4-----4--2-2---2------2-2---2-------------------|
-2-2---2-----2--------------------------------------------------------|
----------------------------------------------------------------------|


B         F#m           E
Today, today is the day
    E              E-F#m
I'm living for You
B              F#m      E
No more to end in my way
       E               E-F#m
I made the change today
Ab
I don't wanna talk about it
F#m
I don't wanna think about it
E
I don't wanna dream about it
E-F#m
Living my way


Pre-Chorus:
Ab
From the one who living for You
F#m
Everything I'm doing for You
E
I will stand, I'll stand for You
E
I'll stand, I'll stand, I'll stand for You

Chorus:
B            F#m             E
I will stand, stand for You
E-F#m              Ab           F#m
Everything I do is for You my Jesus
E
I will stand, I'll stand for You
E                                 B
I'll stand, I'll stand, I'll stand for You

Intro
Verse
Chorus

Bridge:
B       Ab  E            F#m
Whatever happen to me
B       Ab  E            F#m
I make a promise to me
B       Ab  E            F#m
Choose to my Lord and Saviour
B       Ab  E
I will stand

chorus


pls rate!!!!thnks
correction makelcarreon@yahoo.com
Tap to rate this tab
# A B C D E F G H I J K L M N O P Q R S T U V W X Y Z