Song name
# A B C D E F G H I J K L M N O P Q R S T U V W X Y Z

Planetshakers - This Love tab

This love by Planetshakers Solo Tablature only (30% makes easy)

(dropped D)
key of F (starts in Dm)


         PM    PM
|-------------------------|
|-x-x--10---10------------|
|-x-x--10---10------------| 2x
|-x-x-----0----12~~-------|
|-------------------------|
|-------------------------|

|------------------------------------------------------------|
|-11^10----10^11^10----------------------------------10~~~---|
|-------12----------12^10----10^12^10----------10^12-10~~~---|
|-------------------------12----------12^10^12---------------|
|------------------------------------------------------------|
|------------------------------------------------------------|

(do it twice)

this part i make it easy...

|-10^14^10--8^10^8--10^14^10--8^10^8--10^14^10--8^10^8-|
|------------------------------------------------------|
|------------------------------------------------------|
|------------------------------------------------------|
|------------------------------------------------------|
|------------------------------------------------------|

|-5^10^5-------|
|--------8^6^8-|
|--------------|
|--------------|
|--------------|
|--------------|

|-10^14^10--8^10^8--8^10^8--5^8^5-----/10~-----8~------------|
|---------------------------------8^6------------------------|
|------------------------------------------------------------|
|------------------------------------------------------------|
|------------------------------------------------------------|
|------------------------------------------------------------|

|-13^12----12^13^12-----------------------------------------------|
|-------15----------15^13----13^15^13-----------------------------|
|-------------------------14----------14^12\10^12^10---9^10^9-----|
|----------------------------------------------------12------10---|
|-----------------------------------------------------------------|
|-----------------------------------------------------------------|

|----------------12^13--15-x-12-x-13-x-15-x-12-x-13-x-15--15b|
|-------10^11/13---------------------------------------------|
|-10^12------------------------------------------------------|
|------------------------------------------------------------|
|------------------------------------------------------------|
|------------------------------------------------------------|



Legends

 x   -  Dead String/s (sometimes u dont need to add it)
 PM  -  Palm Mute
 0   -  Open String
 ~   -  Vibrato
 ^   -  Hammer-on / Pull-off ("h or p"in other tabs)
 \/  -  Sliding
 b   -  Bending


 thank you for trying my tab. I hope u enjoy!

leave a comment and correction.
but always remember this tab is makes easier.

:D
Tap to rate this tab
# A B C D E F G H I J K L M N O P Q R S T U V W X Y Z