Song name
# A B C D E F G H I J K L M N O P Q R S T U V W X Y Z

Planetshakers - This Love tab

Planetshakers
This Love Tab

Dropped D
by Kenn Aducal

Guitar 1
Intro and verse
  PM-|
|-----------------------------------------------------|
|-----------------------------------------------------|
|-----------------------------------------------------|
|-----------------------------------------------------|
|---------3-3h5---3-3h5~---------3-3h5-----5-5p3------|
|-0-0--0--------0-----------0-3~-------3-5------------|
    .                                    .
Refrain
 PM-------------------------------|
|-----------------------------------|
|-----------------------------------|
|-----------------------------------|
|-----------------------------------| Repeat 3x
|-0-0-0-2-3-3-3-3-5-5-5-7-8-8-10-10-|
|-0-0-0-2-3-3-3-3-5-5-5-7-8-8-10-10-|


 PM-----------------------|
|--------------------------------|
|--------------------------------|
|--------------------------------|
|-------------------------7---8--|
|-0-0-0-2-3-3-3-3-5-5-5-5-7---8--|
|-0-0-0-2-3-3-3-3-5-5-5-5-7---8--|

Chorus
|----------------------------------|
|-3-3-3---6-6-5h6--5-5-5\---8-8-8\-|
|-2-2-2---5-5-5----5-5-5\---7-7-7\-|
|-.-.-.----------------------------| 3x
|----------------------------------|
|----------------------------------|

         PM
|-----------------------|
|-----------------------|
|-3---------5-----7--7--|
|-3---------5-----7--7--|
|-1-------0-3-----5--5--|
|---------0-------.--.--|

Intro, Verse, Refrain, Chorus

|-----------------------------------------------------|
|-----------------------------------------------------|
|-----------------------------------------------------|
|---------------------5p3~----------------------------|
|---------3-3h5---3h5------------3-3h5-----5-5p3------|
|-----0-0-------0-----------0-3~-------3-5------------|

FOR SOLO TAB ..Go on this address 
--> http://tabs.ultimate-guitar.com/p/planetshakers/this_love_solo_tab.htm <--


 CH               PM--|
|---|---------------------|
|---|---------------------|
|---|--3---x-5------------|
|-0-|--3---x-5---7-----7--|
|-0-|--1---x-3---5-----5--|
|-0-|--------------0-0----|

Back to Chorus then Intro

Ending
           PM
|-----------------|
|-----------------|
|-----------------|
|-----------------|
|-----5-5p3---5---|
|-3-5-------0-.---|


Now in Guitar 2

Intro
|----------------|
|-3----/6~-------|
|-2----/5~-------|
|-0--------------|
|-0---------12\\-|
|-0---------12\\-|

Intro 2
       PM        PM             PM
|-----------------------------------------------------|
|-----------------------------------------------------|
|-----------------------------------------------------|
|-----2---2h3---2---2h3~-------2---2h3-----3-3p2~-----|
|-----------------------------------------------------|
|-0-0---0-----0---0-------0-3~---0-----3-5------------|

Verse1
                        PM
|-----------------------------------------------------|
|-----------------------------------------------------|
|-----------------------------------------------------|
|-----------------------------------------------------|
|-0----------0-----------0-3-------------5---5--------|
|-0----------0-----------0-3-------------5---5--------|
  .          .             .             .   .

Verse 2
     PM------------|   PM------------|
|----------------------------------------|
|----------------------------------------|
|----------------------------------------|
|-0------------------3----------------0--|
|-0--0-0-0-0-0-0-0-0-3--3-3-3-5-5-5-5-0--|
|-0--0-0-0-0-0-0-0-0-3--3-3-3-5-5-5-5-0--| 2x

Refrain/Chorus : both guitar 1 & 2 are same

Bridge: Do Verse 2 one time only
and in second time is the following:
     PM------------|   PM---|
|----------------------------------|
|----------------------------------|
|----------------------------------|
|-0------------------3-------------|
|-0--0-0-0-0-0-0-0-0-3--3-3-3-5--5-|
|-0--0-0-0-0-0-0-0-0-3--3-3-3-5--5-|
                              .  .
 Adlib
|----------------------------------------|
|----------------------------------------|
|----------------------------------------|
|----------------------------------------|
|-0--0-0-0-0-0-0-0-0-3--3-3-3-5-5-5-5-0--|
|-0--0-0-0-0-0-0-0-0-3--3-3-3-5-5-5-5-0--| 3x

|---------------------------------|
|---------------------------------|
|---------------------------------|
|---------------------------------|
|-0-0-2-2-3-3-5-5-3-3-5-5-7-7-7-7-|
|-0-0-2-2-3-3-5-5-3-3-5-5-7-7-7-7-|

Chorus, Intro

Legends
 PM - Palm mute
  . - Staccato
  h - Hammer on
  ~ - Vibrato
  p - Pull off
  \ - Slide from right to left (slide down)
  | - Separation of complete notes
  x - Dead string/s
  / - Slide from left to right (slide up)

Chords
                Bb  C Dm  Dm C  F  G
|--------------------------------------|
|-------------------------3--5--6--8---|
|----------------3--5--7--2--5--5--7---|
|-0--2--3--5--7--3--5--7---------------|
|-0--2--3--5--7--1--3--5---------------|
|-0--2--3--5--7------------------------|
 Dm  Em F  G  Am

Ok... Thats it.
Thank you for using my simple tabs. I hope it will be useful for you.
leave any comment and corrections and please rate.

God bless!

Tabbed by Kenneth Aducal
http://www.facebook.com/kenn.ysrael.22
Tap to rate this tab
# A B C D E F G H I J K L M N O P Q R S T U V W X Y Z