Song name
# A B C D E F G H I J K L M N O P Q R S T U V W X Y Z

Planetshakers - Shout It Out tab

Intro:
Guitar 1 and 2
e--------------------------------------------------------|
B--------------------------------------------------------|
G-----------7---------7--------7----7p5------------------|
D----------------------------------------7p5-------------|
A-----5-5-------5-5------5-5------------------7p5--------|
E--------------------------------------------------------|
Verse:
i gunna raise my hand
Bassline
A----3---5---3-5------|
E---------------------|

Pre Chorus
come on get up the king.......
D

Chorus: Jump up jump up jump up.....
 same as intro

Introx4

Bridge:
Guitar 1
   D    F      G       D      F      G
e--2----1------3-------2------1------3---------------------|
B--3----1------3-------3------1------3---------------------|
G--2----2------0-------2------2------0---------------------|
D--0----3------0-------0------3------0---------------------|
A--0----3------2-------0------3------2------------3p5------|
E--0----1------3-------0------1------3-------3p5-----------|
Guitar 2
e----------------------------------------------------------|
B----------------------------------------------------------|
G--7----10---12---7-----10----12-------------------10p12---|play again with
D--7----10---12---7-----10----12------------10p12----------|first note
A--5----8----10---5-----8-----10-----10p12-----------------|
E----------------------------------------------------------|

this is my first so go easy. there might be some mistake.
god bless and rock on.
Tap to rate this tab
# A B C D E F G H I J K L M N O P Q R S T U V W X Y Z