Guitaretab - guitar tabs
Song name
# A B C D E F G H I J K L M N O P Q R S T U V W X Y Z

Planetshakers - Pick It Up tab

Artist: Planetshakers
Song: Pick It Up

Tabbed by a.w


Intro
|----------------------------------------------------------------------|
|-5-4-0--5-4-0--5-4--5-4-0--5-4-0--5-4---------------------------------|
|----------------------------------------------------------------------|
|----------------------------------------------------------------------|
|----------------------------------------------------------------------|
|----------------------------------------------------------------------|


Pre-Verse
|-----------------------------------------------------|
|-----------------------------------------------------|
|-4--4--4-4-4-----------------------------------------|
|-4--4--4-4-4-6-6-6--6-6--4--4--4-4-4-2-2-2--2--2-----|
|-2--2--2-2-2-6-6-6--6-6--4--4--4-4-4-2-2-2--2--2-----|
|-------------4-4-4--4-4--2--2--2-2-2-0-0-0--0--0-----|

|-----------------------------------------------------------------------|
|-----------------------------------------------------------------------|
|-4--4--4-4-4-------------/8-8--8-8-8/9-9-9--99-------------------------|
|-4--4--4-4-4-6-6-6--6-6--/x-x--x-x-x/x-x-x--xx-------------------------|
|-2--2--2-2-2-6-6-6--6-6--/6-6--6-6-6/7-7-7--77-------------------------|
|-------------4-4-4--4-4------------------------------------------------|

[ Tab from: http://www.guitaretab.com/p/planetshakers/88846.html ]
Verse
|-----------------------------------------------------------------------|
|-----------------------------------------------------------------------|
|-4-4---4-4------4-4---4-4----------------------------------------------|
|-4-4---4-4------4-4---4-4------2-2---2-2------2-2---2-2----------------|
|-2-2---2-2------2-2---2-2------2-2---2-2------2-2---2-2----------------|
|-------------------------------0-0---0-0------0-0---0-0----------------|

|----------------------------------------------------------------------|
|----------------------------------------------------------------------|
|----------------------------------------------------------------------|
|-6-6---6-6------4-4---4-4------2-2-2-2-2-2-2-2-2-2-2-2-2-2-2-2--------|
|-6-6---6-6------4-4---4-4------2-2-2-2-2-2-2-2-2-2-2-2-2-2-2-2--------|
|-4-4---4-4------2-2---2-2------0-0-0-0-0-0-0-0-0-0-0-0-0-0-0-0--------|


Pre-Chorus
|----------------------------------------------------------------------|
|----------------------------------------------------------------------|
|----------------------------------------------------------------------|
|-6-6-6-6-6-6-6-6-6-6-6-6--8---9---2---2-2-2-2-2-2-2-2-2-2-2-2-2-2-2-2-|
|-6-6-6-6-6-6-6-6-6-6-6-6--8---9---2---2-2-2-2-2-2-2-2-2-2-2-2-2-2-2-2-|
|-4-4-4-4-4-4-4-4-4-4-4-4--6---7---0---0-0-0-0-0-0-0-0-0-0-0-0-0-0-0-0-|

Chorus:


Iím taking up my cross
              B
Laying down my life
             E
All for the glory of Your name
              F#           E

Iím living my whole life
                B
All for You Jesus
               E
Taking up my cross everyday
            F#            E


________Song Order:________

Intro (2x)
Pre-Verse
Verse
Pre-Chorus (2x)
Chorus
ďPick, pick, pick it up!Ē
Intro
Pre-Verse
Verse
Pre-Chorus (2x)
Chorus (2x)
Bridge
Intro
Chorus
Pre-Verse (2x)


Thatís it, just follow that order.

The Bridge is pretty self-explanatory, Iím sure you can figure it out for yourself. Itís 
a combination of the intro and the pre-verse/chorus really.


Thanks!
Related for Pick It Up tab