Song name
# A B C D E F G H I J K L M N O P Q R S T U V W X Y Z

Planlos - Einsam chords

Highlighted       Show chord diagrams
D				B
Sie sitzt seit Stunden vor dem Fenster
		C
schaut den Regentropfen nach
D			B
Sie lässt ihre Blicke wandern
		C		D
durch den Regen durch die Nacht
			B
erinnert sich an alte Zeiten
		C
alte Freunde, altes Leid,
D				B
hofft auf Dinge die mal kommen
	B		 G
keiner hört sie wenn sie weint

D			C
und wieder spürt sie die Tränen auf ihrem Gesicht
		D				C
sie würde lieber nicht hier sein, ihre Hoffnung zerbricht
	D					G
sie versucht zu entkommen doch gelingt es ihr nicht

Ref:
		D		C		G
So bleibt sie allein, zählt die Stunden bis zur Ewigkeit
		D	D	G		F    E    F
sie ist allein, keiner da der bei ihr bleibt, wenn sie weint
		D	C		G
sie ist allein, zählt die Stunden bis zur Ewigkeit
		D	C		G
sie ist allein, keiner da der mit ihr weint

D				B
Sie sitzt seit Stunden vor dem Fenster
	C
die Sonne blendet ihren Blick
D			B
sie ist allein, sie ist verlassen
	C
keinen Ausweg, kein zurück
D			B
doch worauf soll sie schon warten
	C		G
muss ihr Leben neu sortieren
D				B
sie sitzt seit Stunden vor dem Fenster
  	C
sie blickt stundenlang ins nichts,
D			B
der Tag ist um, die Nacht gekommen
		C
der Mond scheint kahl auf ihr Gesicht
D			B
sie erinnert sich an alte Zeiten
	C
alte Freunde, altes Leid
D			B
hofft auf Dinge die mal kommen
	C		G
keiner hört sie wenn sie weint

Ref:
		D		C		G
So bleibt sie allein, zählt die Stunden bis zur Ewigkeit
		D	D	G		F    E    F
sie ist allein, keiner da der bei ihr bleibt, wenn sie weint
		D	C		G
sie ist allein, zählt die Stunden bis zur Ewigkeit
		D	C		G
sie ist allein, keiner da der mit ihr weint

Solo: D C G x 2

E|-------------------------------------------------|
B|-------------------------------------------------|
G|-12-12-10------10-12-10-12-12-10---10--12-10-----|
D|----------12---------------------12----------12--|
A|-------------------------------------------------|
E|-------------------------------------------------|

E|--------------------------------------------------|
B|-------------10-13-10-13--10----------------------|
G|-12-12-10--------------------10-12----10----------|
D|---------12-----------------------12----12-10-12--|
A|--------------------------------------------------|
E|--------------------------------------------------|

D C G G x 2


D			C
und wieder spürt sie die Tränen auf ihrem Gesicht
		D				C
sie würde lieber nicht hier sein, ihre Hoffnung zerbricht
	D					G
sie versucht zu entkommen doch gelingt es ihr nicht

Ref:
		D		C		G
So bleibt sie allein, zählt die Stunden bis zur Ewigkeit
		D	D	G		F    E    F
sie ist allein, keiner da der bei ihr bleibt, wenn sie weint
		D	C		G
sie ist allein, zählt die Stunden bis zur Ewigkeit
		D	C		G
sie ist allein, keiner da der mit ihr weint
Tap to rate this tab
# A B C D E F G H I J K L M N O P Q R S T U V W X Y Z