Song name
# A B C D E F G H I J K L M N O P Q R S T U V W X Y Z

Plastic Operator - Folder tab

noone has yet to tab this (since its and underrated band) so i figured i'd
contribute. this is my first tab, and i didnt go by the template, so bear with :)
                    INTRO/VERSE/CHORUS


e---------------------------------------------------------------------------|
b----------------------------------3---3------------3---3------------0---0--|
G-------0-------4---4-------0-----------------0---------------0-------------|
D---------------------------------------------------------------------------|
A----------------------3-3-----3-3---3----0-0---0-0---0---0-0----0-0---0----|
E--3-3-----3-3----3---------------------------------------------------------|


                    FILL/CHORUS(2)


e-------------------------------------------|
B-------------------------------------------|
G-------7--------7---------7-------9p7------|
D--7h9------7h9-------7h9------7------------|
A-------------------------------------------|
E-------------------------------------------|


         SOLO(strings)find the speed, that's not  sast hammer on/ pull off not
accurate..just a tip

e-------------8-----7---------------|
B--8p7h9----------------------------|
G-----------------------------------|
D-----------------------------------|
A-----------------------------------|
E-----------------------------------|
Tap to rate this tab
 
# A B C D E F G H I J K L M N O P Q R S T U V W X Y Z