Song name
# A B C D E F G H I J K L M N O P Q R S T U V W X Y Z

Plastic Penny - Everything I Am tab

Help us improve GuitareTab! Take a short survey!
-------------------------------------------------------------------------------
			     Kanye West - Everything I Am
-------------------------------------------------------------------------------
Tabbed by:me


Tuning:standard

piano intro:

e|-----6-8--------6-8--------------------------------------------------------|
B|---8-----8---8------8-----9-8--------9-8-----------------------------------|
G|------------------------------8-8--------8-8-------------------------------|
D|---------------------------------------------------------------------------|
A|---------------------------------------------------------------------------|
E|---------------------------------------------------------------------------|
      
chord progression played throughout the song:

e|--4--3--4--3--4--6--4--6---------------------------------------------------|
B|--4--4--4--4--4--8--4--8---------------------------------------------------|
G|--5--5--5--5--5--8--5--8---------------------------------------------------|
D|--6--5--6--5--6--8--6--8---------------------------------------------------|
A|--6--3--6--3--6--6--6--6---------------------------------------------------|
E|--4-----4-----4-----4------------------------------------------------------|
   Ab Cm Ab Cm Ab Bb Ab Bb
   
Related for Everything I Am tab