Song name
# A B C D E F G H I J K L M N O P Q R S T U V W X Y Z

Plastic Tree - Ruisen Kairo tab

Intro/Verse - Clean

E---X---7----7---X---7----7--- ---X---6----6---X---6----6---|
B---X---7----7---X---7----7--- ---X---6----6---X---6----6---|
G---X---8----8---X---8----8--- ---X---6----6---X---6----6---|
D---X---9----9---X---9----9--- ---X---8----8---X---8----8---|
A---X------------X------------ ---X------------X------------|
E----------------------------- -----------------------------|

Pre-Chorus - Light Distortion

E----------------------------------------------------------------|
B----------------------------------------------------------------|
G-6--6-6-6-8--8-8-8--6--6-6-6-4--4-4-4--6--6-6-6-8--8-8-8--4-4-4-|
D-6--6-6-6-8--8-8-8--6--6-6-6-4--4-4-4--6--6-6-6-8--8-8-8--4-4-4-|
A-4--4-4-4-6--6-6-6--4--4-4-4-2--2-2-2--4--4-4-4-6--6-6-6--2-2-2-|
E----------------------------------------------------------------|

Riff - Slight Delay and Light Distortion

E----------------------|
B-------------9---9----|
G-----------8---8---8--|
D--8-9--6--------------|
A----------------------|
E----------------------|

Chorus - Light Distortion

E--------------------------------------|
B--------------------------------------|
G--4-4-4-4--6-6-6-6--8-8-8-8--4-4-4-4--|
D--4-4-4-4--6-6-6-6--8-8-8-8--4-4-4-4--|
A--2-2-2-2--4-4-4-4--6-6-6-6--2-2-2-2--|
E--------------------------------------|
Tap to rate this tab
# A B C D E F G H I J K L M N O P Q R S T U V W X Y Z