Guitaretab - guitar tabs
Song name
# A B C D E F G H I J K L M N O P Q R S T U V W X Y Z

Plastilina Mosh - Peligroso Pop tab

Verso 1
e:-9---9----9----9-----|-9--9----9--9--9--9-|
B:-10--10---10---10----|-10-10---10-10-10-10|
G:-9---9----9----9-----|-9--9----9--9--9--9-|
D:-11--11---11---11----|-11-11---11-11-11-11|
A:-9---9----9----9-----|-9--9----9--9--9--9-|
E:-9---9----9----9-----|-99-----9--9--9--9-|

e:-7--7---7--7---|-7--7----7--7--7--7-|
B:-10-10--10-10--|-9--9----9--9--9--9-|
G:-9--9---9--9---|-7--7----7--7--7--7-|
D:-7--7---7--7---|-9--9----9--9--9--9-|
A:-9--9---9--9---|-7--7----7--7--7--7-|
E:-7--7---7--7---|-7--7----7--7--7--7-|
viernes ora vez..
[ Tab from: http://www.guitaretab.com/p/plastilina-mosh/180197.html ]
Solo
e:-----------------------|-9----9-10-12-11-12-11-|
B:-10--10---101210--12-|---12------------------|
G:--------9--------------|-----------------------|
D:-----------------------|-----------------------|
A:-----------------------|-----------------------|
E:-----------------------|-----------------------|

e:-----------------------|-9----9-10-12-11-12-11-|
B:-10--10---101210--12-|---12------------------|
G:--------9--------------|-----------------------|
D:-----------------------|-----------------------|
A:-----------------------|-----------------------|
E:-----------------------|-----------------------|
peligroso pop...
Related for Peligroso Pop tab