Song name
# A B C D E F G H I J K L M N O P Q R S T U V W X Y Z

Plastiscines - Pop In Pop Out tab

Pop in pop out
As recorded by Plastiscines
(From the Album LP1)

Tuning: E A D G B e (Standard)


 Guitar I
      H    H          Q  Q  Q  Q
e|----------------|---------------|
B|----------------|---------------|
G|---17----17-----|--17-17-17-17--|
D|----------------|---------------|
A|----------------|---------------|
E|----------------|---------------|
            Lyrics: Pop in    pop out


  Guitar I
      E  E  E   E   E  E  E           E  E   E  E   E  E  E
e|--------------------------------|-------------------------------------|
B|--------------------------------|-------------------------------------|
G|---12-15--12-15--12-15-17-------|---12-15-12-15--21-19-17------------|
D|--------------------------------|-------------------------------------|
A|--------------------------------|-------------------------------------|
E|--------------------------------|-------------------------------------|
 |
 |Guitar II
 | S  S S  S  S S  S  S S  S S  S    S  S S  S  S S  S  S S  S S  S
e|--------------------------------|-------------------------------------|
B|--------------------------------|-------------------------------------|
G|--------------------------------|-------------------------------------|
D|-10-x-x--10-x-x--10-x-10-x-10-x-|--10-x-x--10-x-x--10-x-10-x-10-x-----|
A|-10-x-x--10-x-x--10-x-10-x-10-x-|--10-x-x--10-x-x--10-x-10-x-10-x-----|
E|-8--x-x--8--x-x--8--x-8--x-8-x-|--8--x-x--8--x-x--8--x-8--x-8--x-----|


  Guitar I
      E  E  E   E   E  E  E           E  E   E  E   E  E  E
e|--------------------------------|-------------------------------------|
B|--------------------------------|-------------------------------------|
G|---12-15--12-15--12-15-17-------|---12-15-12-15--21-19-17------------|
D|--------------------------------|-------------------------------------|
A|--------------------------------|-------------------------------------|
E|--------------------------------|-------------------------------------|
 |
 |Guitar II
 | S  S S  S  S S  S  S S  S S  S    S  S S  S  S S  S  S S  S S  S
e|--------------------------------|-------------------------------------|
B|--------------------------------|-------------------------------------|
G|--------------------------------|-------------------------------------|
D|-10-x-x--10-x-x--10-x-10-x-10-x-|--10-x-x--10-x-x--10-x-10-x-10-x-----|
A|-10-x-x--10-x-x--10-x-10-x-10-x-|--10-x-x--10-x-x--10-x-10-x-10-x-----|
E|-8--x-x--8--x-x--8--x-8--x-8-x-|--8--x-x--8--x-x--8--x-8--x-8--x-----|


  Guitar I
      E  E E  E   E  E  E  E          E  E  E  E  E  E  E
e|--------------------------------|-------------------------------------|
B|--------------------------------|-------------------------------------|
G|---19-19-19-19--21-19-21-21-----|---17-17-17-17-21-19-17--------------|
D|--------------------------------|-------------------------------------|
A|--------------------------------|-------------------------------------|
E|--------------------------------|-------------------------------------|
 |
 |Guitar II
 | S  S S  S S S  S S S S S S
e|--------------------------------|-------------------------------------|
B|--------------------------------|-------------------------------------|
G|--7-x-x--7-x-x--9-x-9-x-9-x-----|-------------------------------------|
D|--7-x-x--7-x-x--9-x-9-x-9-x-----|--10-x-x--10-x-x--10-x-10-x-10-x-----|
A|--5-x-x--5-x-x--7-x-7-x-7-x-----|--10-x-x--10-x-x--10-x-10-x-10-x-----|
E|-------------------------------|--8--x-x--8--x-x--8--x-8--x-8--x-----|


Guitar I
      E  E E  E   E  E  E  E          E  E  E  E  E  E  E
e|--------------------------------|-------------------------------------|
B|--------------------------------|-------------------------------------|
G|---19-19-19-19--21-19-21-21-----|---17-17-17-17-21-19-17--------------|
D|--------------------------------|-------------------------------------|
A|--------------------------------|-------------------------------------|
E|--------------------------------|-------------------------------------|
 |
 |Guitar II
 | S  S S  S S S  S S S S S S
e|--------------------------------|-------------------------------------|
B|--------------------------------|-------------------------------------|
G|--7-x-x--7-x-x--9-x-9-x-9-x-----|-------------------------------------|
D|--7-x-x--7-x-x--9-x-9-x-9-x-----|--10-x-x--10-x-x--10-x-10-x-10-x-----|
A|--5-x-x--5-x-x--7-x-7-x-7-x-----|--10-x-x--10-x-x--10-x-10-x-10-x-----|
E|-------------------------------|--8--x-x--8--x-x--8--x-8--x-8--x-----|

Repeat all three times and then:

Guitar I
      H    H          Q  Q  Q  Q
e|----------------|---------------|
B|----------------|---------------|
G|---17----17-----|--17-17-17-17--|
D|----------------|---------------|
A|----------------|---------------|
E|----------------|---------------|

Duration Legend

W  whole = 4
H - half  = 2
Q  quarter = 1
E - 8th     = 1/2
S - 16th  = 1/4
Tablature Legend

x  - Left-hand muting


I hope that enjoy the tab, this is my first tab


Agradecimientos especiales para El Papi (papilento) el que me motivo a hacer la 
, Jorge que superviso todo, El loco Juan que corrigi algunas cosas y Luis que fue el que me 
que exista esta cancin.
Tap to rate this tab
# A B C D E F G H I J K L M N O P Q R S T U V W X Y Z