Song name
# A B C D E F G H I J K L M N O P Q R S T U V W X Y Z

Plastiscines - Pas Avec Toi tab

-------------------------------------------------------------------------------
			     PAS AVEC TOI - Plastiscines
-------------------------------------------------------------------------------
Tabbed by:
Email:

Tuning: EADGBE

Intro
LEAD 0:04
e|-5----------|-----------------888------------------------------------------------------|
B|-5----------|-----1010108--8-----108108--1010108--8------------------8-----------------|
G|-5-------8x-|------------10-10------------------10-10-----------7-10----------2x-------|
D|-5----------|-----------------------------------------1010101010-----------------------|
A|-5----------|--------------------------------------------------------------------------|
E|-5----------|--------------------------------------------------------------------------|
RHYTHM (listen to song for strumming) 0:07
e|------------------------------------------------------------------------------|
B|------------------------------------------------------------------------------|
G|----7--10---------------------------------------------------------------------|
D|----7--10--10-----------------------------------------------------------------|
A|----5--8--10------------------------------------------------------------------|
E|----------8-------------------------------------------------------------------|

Verse
LEAD: idle
RHYTHM 0:31
e|-----------------------------------------------------------------------------|
B|-----------------------------------------------------------------------------|
G|----10-10-10---7-------------------------------------------------------------|
D|----10-10-10---7-------------------------------------------------------------|
A|----8--8---8---5-------------------------------------------------------------|
E|-----------------------------------------------------------------------------|
repeat for entire verse and fill

fill
LEAD 0:44
e|------------------888--------------------------------------------------------|
B|---1010108--8--------108108--------------------------------------------------|
G|----------10--10-------------------------------------------------------------|
D|-----------------------------------------------------------------------------|
A|-----------------------------------------------------------------------------|
E|-----------------------------------------------------------------------------|

chorus
LEAD 0:47
e|------------------------------------------------------------------------------------|
B|------------------------------------------------------------------------------------|
G|------------------------------------------------------------------------------------|
D|----7755----57755----5-5533----35533----3-------------------------------------------| 4x
A|---------88-------88--------55-------55---------------------------------------------|
E|------------------------------------------------------------------------------------|
RHYTHM 0:47
e|------------------------------------------------------------------------------|
B|------------------------------------------------------------------------------|
G|----7--10---------------------------------------------------------------------| 4x
D|----7--10-10------------------------------------------------------------------|
A|----5--8--10------------------------------------------------------------------|
E|-----------8------------------------------------------------------------------|

bridge
RHYTHM 1:52-2:11
e|--5---|-------------------------------------------------------------------------|
B|--5---|-------------------------------------------------------------------------|
G|--5---|-------------------------------------------------------------------------|
D|--5---|-------------------------------------------------------------------------|
A|--5---|-------------------------------------------------------------------------|
E|--5---|-------------------------------------------------------------------------|
RHYTHM 2:11-2:21
e|---------------------------------------------------------------------------------|
B|---------------------------------------------------------------------------------|
G|--10-----7-----------------------------------------------------------------------|
D|--10-10--7-----------------------------------------------------------------------|
A|--8--10--5-----------------------------------------------------------------------|
E|-----8---------------------------------------------------------------------------|
LEAD 2:11-2:21
e|-----------------------------------------------------------------------------|
B|-----------------------------------------------------------------------------|
G|-----------------------------------------------------------------------------|
D|-------223355557777----------------------------------------------------------| 4x
A|---3355----------------------------------------------------------------------|
E|-----------------------------------------------------------------------------|

outro 2:45
e|------------------------------------------------------------------------------|
B|------------------------------------------------------------------------------|
G|------------------------------------------------------------------------------|
D|-------553353-----------------------------------------------------------------|
A|--------------5---------------------------------------------------------------|
E|------------------------------------------------------------------------------|
hold last note

SONG ORDER:
Intro
Verse
Fill
Chorus
Verse
Fill
Chorus
Bridge
Chorus
Outro

************************************

| /   slide up
| \   slide down
| h   hammer-on
| p   pull-off
| ~   vibrato
| +   harmonic
| x   Mute note
| b   Bend
| pb  Pre-bend
| br  Bend release
| pbr Pre-bend release
| brb Bend release bend

************************************
Tap to rate this tab
# A B C D E F G H I J K L M N O P Q R S T U V W X Y Z