Song name
# A B C D E F G H I J K L M N O P Q R S T U V W X Y Z

Plastiscines - Loser chords

Highlighted       Show chord diagrams
INTRO(LISTEN TO SONG FOR NUMBER OF TIMES PLAYED)
E-----------------------------|
B---7-------------------------|
G---7------4-------6----------|
D----------5-------7----------|
A-----------------------------|
E-----------------------------|


D
Chaque fois que tu m'appelles
             G                 A
Je n'réponds pas, je n'réponds pas et
        D
Chaque fois que tu me vois
             G             A
Je n'te vois pas, je n'te vois pas


REFRAIN :
 D
Tu n'es qu'un looo...
  G                A
Tu n'es qu'un lo...ser, oh
 D
Tu n'es qu'un looo...
  G                A
Tu n'es qu'un lo...ser, méfie-toi
B       D       A
Loser ! Trop d'arrogance en toi
B       D       A
Loser ! Tu n'es plus comme un roi
B       D       A
Loser ! Ca ne m'intéresse pas

B-A-B-A-B-> Prends garde à toi (x2)

(LISTEN TO SONG FOR NUMBER OF TIMES PLAYED)
E-----------------------------|
B---7-------------------------|
G---7------4-------6----------|
D----------5-------7----------|
A-----------------------------|
E-----------------------------|


D
Chaque fois que tu me cherches
           G                 A
Je n'suis pas là, je n'suis pas là et
       D
Chaque fois tu n'y arrives pas
	       G                   A
Je n'comprends pas, je n'comprends pas


CHORUS:

INTRO:

D
Chaque fois que tu m'attrapes
	G            A
Je me débats, je me débats et
D
Chaque fois je ne viens pas
	        G                   A
Tu n'comprends pas, tu n'comprends pas

CHORUS:

ANY COMMENTS CAN BE SEND TO PRS399@HOTMAIL.COM
Tap to rate this tab
 
# A B C D E F G H I J K L M N O P Q R S T U V W X Y Z