Song name
# A B C D E F G H I J K L M N O P Q R S T U V W X Y Z

Plastiscines - Bitch tab

Song: Bitch
Artist: Plastiscines
Album: About Love
Tabbed by Alyssa N (heyitsalyssa) abnapora96@hotmail

**INTRO/VERSE 1:

I'm terrible for not being able to tell if this is a guitar or a bass, or both playing 
the same thing...but it could be played by either and sound great!

guitar 1:

e|---------------------|
B|---------------------|
G|---------------------|
D|--8-8-8-6------------|
A|----------8-6-444-6~-|
E|---------------------| ...12x

guitar 2 (comes in at 0:30):

e|---6~--|
B|-------|
G|-------|
D|-------|
A|-------|
E|-------| ...16x

**CHORUS (0:45)

guitars 1 & 2:

e|---------------------------------------------|
B|---------------------------------------------|
G|-------------------88888888-1010101010101010-|
D|-88888888-66666666-88888888-1010101010101010-|
A|-88888888-66666666-66666666-8-8-8-8-8-8-8-8--|
E|-66666666-44444444---------------------------| ...2x

**VERSE 2:

both guitars:
e|---------------------|
B|---------------------|
G|---------------------|
D|--8-8-8-6------------|
A|----------8-6-444-6~-|
E|---------------------| ...6x

then guitar 1 cuts out, and guitar 2 plays:

e|---6~--|
B|-------|
G|-------|
D|-------|
A|-------|
E|-------| ...16x

**CHORUS 2x

**BRIDGE (2:18)

I'm almost positive this is a bass but a guitar would sound fine:

e|--------------------------------------|
B|--------------------------------------|
G|--------------------------------------|
D|--------------------------------------|
A|--------------------66666666-88888888-|
E|--66666666-44444444-------------------| ...2x

**CHORUS 2x

And you're done!
Email me any questions or corrections :D
Tap to rate this tab
# A B C D E F G H I J K L M N O P Q R S T U V W X Y Z