Song name
# A B C D E F G H I J K L M N O P Q R S T U V W X Y Z

Platero Y Tu - Desertor tab

esta es la introduccion de la cancion Deseretor de platero y tu
estos son los punteos del principio con las quintas:

e |-----------------------------------------------------------------------|
B |-----8-7---------------8-7--------------8-7--------8&7-----------------|
G |---------9-7-9-------------9-7-9------------9-7-9------9-7-9-7---------|
D |--9--------------7--7----------------5---------------------------7-9---|
A |--9--------------7--7----------------5---------------------------------|
E |--7--------------5--5----------------3---------------------------------|

solo me se esto de la cancion pero me se tambien este punto de la cancion que os lo pongo

     El punteo es asi:
e |---------------------------------|
B |------8&7-------------------7----|
G |----------9-7-7-9*/2----7-9------|
D |---------------------------------|
A |---------------------------------|
E |---------------------------------|
Tap to rate this tab
# A B C D E F G H I J K L M N O P Q R S T U V W X Y Z