Guitaretab - guitar tabs
Song name
# A B C D E F G H I J K L M N O P Q R S T U V W X Y Z

Platinum Blonde - Doesnt Really Matter tab

------------------------------------------------------------------------------
			     Doesn't really Matter - Platinum Blond
------------------------------------------------------------------------------
Tabbed by: fatedprison
Email:

Tuning: standard

intro/verse lead
e|---------------------------------------------------------------------------|
B|---------------------------------------------------------------------------|
G|----13--14--13--------13--14--13-----9--11--9-----9--11--9-----------------|
D|1111--11--11--11--1111--11--11--11-99--9--9---9-99--9--9---9---------------|
A|---------------------------------------------------------------------------|
E|---------------------------------------------------------------------------|

intro/verse rythym (as well as bass)
e|---------------------------------------------------------------------------|
B|---------------------------------------------------------------------------|
G|---------------------------------------------------------------------------|
D|666666---------------444444------------------------------------------------|
A|444444-777777-444444-222222------------------------------------------------|
E|-------555555-222222-------------------------------------------------------|

pre chorus
e|---------------------------------------------------------------------------|
B|---------------------------------------------------------------------------|
G|--------------6-------------11---------------------------------------------|
D|--------------6-let it ring-11-let it ring---------------------------------|
A|777777-666666-4-------------9--------------777777-99999999999999-----------|
E|555555-444444------------------------------555555-77777777777777-----------|
[ Tab from: http://www.guitaretab.com/p/platinum-blonde/250953.html ]
Chorus Lead (the 11 are elevens)
e|---------------------------------------------------------------------------|
B|---------------------------------------------------------------------------|
G|1313131313131313-1414141414141414-1111111111111111-88888898----------------|
D|1111111111111111-1111111111111111-1111111111111111-99999999----------------|
A|---------------------------------------------------------------------------|
E|---------------------------------------------------------------------------|

chorus rythym
e|---------------------------------------------------------------------------|
B|---------------------------------------------------------------------------|
G|---------------------------------------------------------------------------|
D|666666---------------444444------------------------------------------------|
A|444444-777777-444444-222222------------------------------------------------|
E|-------555555-222222-------------------------------------------------------|

solo
e|---------------11----14----11----------------------------------------------|
B|---------12-------12----12----12----12-14----------------------------------|
G|---13-------13-------------------13-------13-131314141313141413141314131413|
D|11----11-------------------------------------111111111111111111111111111111|
A|---------------------------------------------------------------------------|
E|---------------------------------------------------------------------------|

DRUM SOLO PART
e|---------------------------------------------------------------------------|
B|---------------------------------------------------------------------------|
G|---------------------------------------------------------------------------|
D|-11----palm mute many times------------------------------------------------|
A|---------------------------------------------------------------------------|
E|---------------------------------------------------------------------------|

outro same as intro just play over and over
Related for Doesnt Really Matter tab
Doesnt Really Matter chords by Platinum Blonde