Platinum Blonde - Im Not In Love tab

Platinum Blonde - Not In Love

Tune down 1/2 step 

Riff A 

E|----------------|----------------|------3---------|------3---------|
B|----------------|----------------|----1-----------|----1-----------|
G|----------------|----------------|--2----let ring-|--2----let ring-|
D|----------------|----------------|----------------|----------------|
A|----------------|----------------|----------------|----------------|
E|----------------|----------------|----------------|----------------|


Riff B 
E|----------------|----------------|----------------|----------------|
B|-1-0---1-0---0--|-1-0---1-0---0--|-1-0---1-0---0--|-1-0---1-0---0--|
G|-----2-----0---0|-----2-----0---0|-----2-----0---0|-----2-----0---0|
D|-pm throughout--|----------------|----------------|----------------|
A|----------------|----------------|----------------|----------------|
E|----------------|----------------|----------------|----------------|

Riff C

E|-3-3-3-3-3-3-3-3|-3-3-3-3-3-3-3-3|----------------|----------------|
B|-1-1-1-0-0-0-0-0|-1-1-1-0-0-0-0-0|-1-1-1-1-1-1-1-1|-1-1-1-1-1-1-1-1|
G|-2-2-2-2-2-2-2-2|-2-2-2-2-2-2-2-2|-2-2-2-0-0-0-0-0|-2-2-2-0-0-0-0-0|
D|----------------|----------------|----------------|----------------|
A|----------------|----------------|----------------|----------------|
E|----------------|----------------|----------------|----------------|

Riff D

E|----------------|----------------|----------------|----------------|
B|----------------|----------------|----------------|----------------|
G|-----12---------|----12----------|----12----------|----12----------|
D|-10----10-9-10--|-10----10-9-10--|-10----10-9-10--|-10----10-9-10--|
A|----------------|----------------|----------------|----------------|
E|----------------|----------------|----------------|----------------|

Riff E

E|---8-----7-----8|-----7-----8----|-7-----8-----7--|---8-----7-----8|
B|-----8-----8----|-8-----8-----8--|---8-----8-----8|-----8-----8----|
G|-5-----5-----5--|---5-----5-----5|-----5-----5----|-5-----5-----5--|
D|----------------|----------------|----------------|----------------|
A|----------------|----------------|----------------|----------------|
E|----------------|----------------|----------------|----------------|

E|-----7-----8----|-7-----8-----7--|---8-----7-----8|-----7-----8----|
B|-8-----8-----8--|---8-----8-----8|-----8-----8----|-8-----8-----8--|
G|---5-----5-----5|-----5-----5----|-5-----5-----5--|---5-----5-----5|
D|----------------|----------------|----------------|----------------|
A|----------------|----------------|----------------|----------------|
E|----------------|----------------|----------------|----------------|

Riff F

E|-3-3-3-3-3-3-3-3|-3-3-3-3-3-3-3-3|----------------|----------------|
B|-1-1-1-0-0-0-0-0|-1-1-1-0-0-0-0-0|-1-1-1-1-1-1-1-1|-1-1-1-1-1-1-1-1|
G|-2-2-2-2-2-2-2-2|-2-2-2-2-2-2-2-2|-2-2-2-0-0-0-0-0|-2-2-2-0-0-0-0-0|
D|-pm throughout--|----------------|----------------|----------------|
A|----------------|----------------|----------------|----------------|
E|----------------|----------------|----------------|----------------|

Riff G

E|----15----------|----15----------|----15----------|----15----------|
B|-13----13-12-13-|-13----13-12-13-|-13----13-12-13-|-13----13-12-13-|
G|----------------|----------------|----------------|----------------|
D|----------------|----------------|----------------|----------------|
A|----------------|----------------|----------------|----------------|
E|----------------|----------------|----------------|----------------|


Arrangment

Riff A x4 Verse 1

Riff B X2

Riff B (gtr1) + Riff C (gtr2) X2 Chorus1

Riff D X2 

Riff A x4 Verse 2

Riff B X2 

Riff B (gtr1) + Riff C (gtr2) X2 Chorus2

Riff D X4

Riff E x1 voiceover and ad-lib

Riff F X2

voice over + ad-lib

Riff D X2 

Riff D (gtr1) with Riff G (gtr2) repeat through outro


Lyrics

Verse 1
I found your picture, hanging on the back of my door.
Won't give you my heart, no one lives there any-more

You said were lovers, we could never be friends,
the fascination ends, here we go again, oh-oh-oh!

Chorus
Cause its hot inside, when you coming home
Cause its hot inside, isn't that enough

I'm not in love, I'm not in love
I'm not in love, I'm not in love

Verse 2
Could it be that, time has taken its toll.
Won't take you so far, I am in control

Chorus
You said were lovers, we could never be friends,
the fascination ends, here we go again, oh-oh-oh!

Cause its hot inside, when you coming home
Cause its hot inside, isn't that enough

I'm not in love, I'm not in love
I'm not in love, I'm not in love.
I'm not in love, I'm not in love
I'm not in love, I'm not in love.

voice over + ad-lib

Chorus
Im not in love, Im not in love
Im not in love, Im not in love.
Im not in love, Im not in love
Im not in love, Im not in love.

We are not in love, we are not in love
We are not in love, we are not in love.
We are not in love, love
Love, love.

Tap to rate this tab
 
# A B C D E F G H I J K L M N O P Q R S T U V W X Y Z