Song name
# A B C D E F G H I J K L M N O P Q R S T U V W X Y Z

Platinum Blonde - Doesnt Really Matter tab

Go:audio

Doesn't really matter


I'm pritty sure this is about 100% correct. its hard to hear whats going on in the 2nd 
but I think i'm right.

the strumming pattern is pritty simple to work out, so ive just listed the chords and in 
order they are played. ive put the song order at the bottom.

Any questions just comment.
Also don't forget to rate! =)
Thanks

Verse

|---0---0---0----0||
|---8---7---12---5||
|---0---0---0----0||
|---9---7---12---5||
|---7---5---10---3||
|-----------------||

Chorus

|---0----0----0---0---0---0||
|---12---10---5---8---7---5||
|---0----0----0---0---0---0||
|---12---11---5---9---7---5||
|---10---9----3---7---5---3||
|--------------------------||

Interlude

|--------------------------------||
|--------------------------------||
|---------------5---------------5||
|-------7-------5-------7-------5||
|---2---5---5---3---2---5---5---3||
|---0-------3-------0-------3----||

Chorus 2

|-----------------------------------------||
|-----------------------------------------||
|--------------5--------------7------5----||
|5------4------5-X16---2------7-X8---5-X16||
|5-X8---5-X8---3-------2-X8---5------3----||
|3------2--------------0------------------||


Outro

|---0---0---0-||
|---8---7---5-||
|---0---0---0-||
|---9---7---5-||
|---7---5---3-||
|-------------||


Song order...

Verse X2

Chorus X2

Verse X3

Chorus X2

Interlude

Chorus 2 X3

Outro
Tap to rate this tab
 
# A B C D E F G H I J K L M N O P Q R S T U V W X Y Z