Guitaretab - guitar tabs
Song name
# A B C D E F G H I J K L M N O P Q R S T U V W X Y Z

Platitude - Avalon Farewell tab

Platitude - Avalon Farewell Intro Guitar Tab by Matt Stevenson

This is an obscure(ish) band, but i LOVE this intro, and had to tab it myself because
there are No tabs on the www. for Platitude. Yeah anyway, here you go all ye faithful
fans!!
[ Tab from: http://www.guitaretab.com/p/platitude/60942.html ]
e---------------------------------------------------------------------------------I
b---------------------------------------------------------------------------------I
g---------------------------------------------------------------------------------I
d---------------------------------------------------------------------------------I
a-5-7-7-4-4-7-7--5-5-7-7-9-9-10-3-3-2-2-3-3--2-2-3-3-5-5--5-7-7-5-5-7-7--5-5-7-7-9I
Eó3-5-5-3-3-5-5--3-3-5-5-7-7-8--1-1-0-0-1-1--0-0-1-1-3-3--3-5-5-3-3-5-5--3-3-5-5-7I


e---------------------------------------------------------------------------------I
b---------------------------------------------------------------------------------I
g---------------------------------------------------------------------------------I
d------------------2-2-0-0--------------------------------------------------------I
a-9-10-3-3-2-2-3-3---------3-3-2-2-3-3--------------------------------------------I
E-7-8--1-1-0-0-1-1-------------------1--------------------------------------------I