Song name
# A B C D E F G H I J K L M N O P Q R S T U V W X Y Z

Plavi Orkestar - Sava Tiho Tece chords

Highlighted       Show chord diagrams
e----------------------------------------------------------|
H-5-3-5-6--5-6--10/8-8/5-5--10--8--5--3-1-3-5-3-1-0h1p0----|
G-------------------------------------------------------2--|
D----------------------------------------------------------|
A----------------------------------------------------------|
E----------------------------------------------------------|

e----------------------------------------------|
H-5-3-5-6--5-6--10/8-8/5-5--10--8--5--3-1-3----|
G-------------------------------------------4--|
D----------------------------------------------|
A----------------------------------------------|
E----------------------------------------------|

               Am         Dm
        Pokraj Save breze male
              G       Am
        Tvoje oci vesele
                       Dm
        Ove noci cudno sjaje
             F    E    Am
        Mene vise ne vole

        Nije meni sto te moram
        Sto te moram gubiti
        Vec je meni da'l ces moci
        Poslije mene ljubiti

refren:
                Dm   G
                Sava tiho tece
                Am
                Zadnje nam je vece
                E               Am     A
                Draga ostala si sama

                Dm   G
                Sava tiho tece
                Am
                Zadnje nam je vece
                E     G          Am
                Draga postala si dama

        Slomile se nase grane
        Vise nemam prava ja
        Na te tvoje oci male
        Nisi moja curica

        Nije meni sto ja necu
        Vise tebe vidjeti
        Vec je meni nece mi se
        Nove oci svidjeti
Tap to rate this tab
# A B C D E F G H I J K L M N O P Q R S T U V W X Y Z