Song name
# A B C D E F G H I J K L M N O P Q R S T U V W X Y Z

Plavi Orkestar - Nemogu Ti Nista Osim Srca Dati tab

--------------------------------------------------------------
    Ne mogu ti nista osim srca dati- Plavi Orkestar (intro)
--------------------------------------------------------------
Tabbed by: imperatormk
E-mail: darko.simonovski@hotmail.com

Tuning: Standard tuning

Tabs: 


e|-----5-----5--------7-----7-----|-------8--0--8--10/12--|
H|--------------------------------|-----------------------|
G|--5-----5-----5--7-----7-----7--|--8/9------------------|
D|--------------------------------------------------------|
A|--------------------------------------------------------|
E|--------------------------------------------------------|

e|--10--10------10------|--4/5--5--3--1--0--------------|
H|----------------------|-------------------3--2b-------|
G|----------10------10--|--------------------------5/2--|
D|------------------------------------------------------|
A|------------------------------------------------------|
E|------------------------------------------------------|

Repeat the same one more time, and the second time play this in the end:

H|--1p0--|

This whole intro plays in the end of the song too (outro).
Tap to rate this tab
# A B C D E F G H I J K L M N O P Q R S T U V W X Y Z