Song name
# A B C D E F G H I J K L M N O P Q R S T U V W X Y Z

Play Radio Play - Complement Eachother Like Colors tab

Complement Each Other Like Colors by Playradioplay!

This is the demo version not the one from Frequency E.P.
I find that version to be particularly lame.

Standard Tuning

e|---------------------------------------------------------------------------|
B|---------------------------------------------------------------------------|
G|---------------------------------------------------------------------------|
D|------7-7------------------------------------------------------------------|
A|------7-7------------------------------------------------------------------|
E|------5-5------------------------------------------------------------------|
pm            .    . 

E|-------------------------------------|
B|-------------------------------------|
G|-------------------------------------|
D|-----7~-----777~-------7~-----777~---|
A|-----7~-----777~-------7~-----777~---|
E|-----5~-----555~-------5~-----555~---|

e|---------------------------------------------------------------------------|
B|---------------------------------------------------------------------------|
G|---------------------------------------------------------------------------|
D|------7-7-----7-7----------------------------------------------------------|
A|------7-7-----7-7----------------------------------------------------------|
E|------5-5-----5-5----------------------------------------------------------|
pm            .    .            .   .

e|---------------------------------------------------------------------------|
B|---------------------------------------------------------------------------|
G|-----------44444444--------------------------------------------------------|
D|--7777777--44444444--44444444--66666666------------------------------------|
A|--7777777--22222222--44444444--66666666------------------------------------|
E|--5555555------------22222222--44444444------------------------------------|



and that's it I don't tab out synth or other stupid stuff like that
like most retards do on this GUITAR tab website.




Tap to rate this tab
# A B C D E F G H I J K L M N O P Q R S T U V W X Y Z