Song name
# A B C D E F G H I J K L M N O P Q R S T U V W X Y Z

Play Radio Play - Elephants As Big As Whales tab

"Your name is on..."
e|---------------|
B|---------------|
G|-7-------------| keep playing those two strings until you get to...
D|---8---8---8---|
A|---------------|
E|-----6---6---6-|

"Well so is mine."
e|--------------------------------|
B|--------------------------------|
G|--------------7-----------------| play that until...
D|-8---8---8------8---8---8---8---|
A|------------------6---6---6---6-|
E|---6---6------------------------|

       "Your life made a turn for you..."
e|---------------|
B|---------------|
G|-7-------------| keep playing that...
D|---8---8---8---|
A|---------------|
E|-----6---6---6-|


"And gave you time."
e|--------------------------------|
B|--------------------------------|
G|--------------7-----------------| play that until...
D|-8---8---8------8---8---8---8---|
A|------------------6---6---6---6-|
E|---6---6------------------------|

"footsteps you found..."
e|--------------------------------------|
B|--------------------------------------|
G|--------------------------------------|play until...
D|-----8---8---8---8---8---8------------|
A|--------------------------------------|
E|-------6---6---5---5---5---5----------|

"tolerance and cleanliness..."
e|--------------------------------------|
B|--------------------------------------|
G|--------------------------------------|play until...
D|-8---8---8---8---8---8---8------------|
A|--------------------------------------|
E|---6---6---6---6---6---6--------------|

"and I found you."
(Back to the beginning)

Solo:
e|----------------|
B|----------------|
G|7h8p7---7h8p7-10|
D|------8---------|
A|----------------|
E|----------------|



Tap to rate this tab
# A B C D E F G H I J K L M N O P Q R S T U V W X Y Z