Song name
# A B C D E F G H I J K L M N O P Q R S T U V W X Y Z

Play Radio Play - My Attendance Is Bad But My Intentions Are Good tab

e|---------------------|
B|-11---11---11---11---|
G|----8----8----8----8-| 
D|---------------------|
A|---------------------|
E|---------------------|


e|-----------------|
B|-----------------|
G|-7---7---7---7---| 
D|---5---5---5---5-|
A|-----------------|
E|-----------------|


e|--------------------------------| 
B|-{11}-----{11}------------------|
G|------{8}-------7---7---7---7---| 
D|------------------5---5---5---5-|
A|--------------------------------|
E|--------------------------------|


e|---------------------|
B|-11---11---11---11---|
G|----8----8----8----8-| 
D|---------------------|
A|---------------------|
E|---------------------|

                               x12
e|-----------------|
B|-----------------|
G|-7---7---7---7---| 
D|---5---5---5---5-|
A|-----------------|
E|-----------------|



{} = tremolo pick
Tap to rate this tab
 
# A B C D E F G H I J K L M N O P Q R S T U V W X Y Z