Guitaretab - guitar tabs
Song name
# A B C D E F G H I J K L M N O P Q R S T U V W X Y Z

Play Radio Play - Compliment Each Other Like Colors tab

Compliment Each Other Like Colors
PlayRadioPlay

This is how I play this song with only an acoustic guitar
[ Tab from: http://www.guitaretab.com/p/play-radio-play/106488.html ]
  Intro/Verse/Ending
e|0---------------------------------------------------------------|
B|----10----10----9-----9-----9-----7-----7-----7-----5-----5-----|
G|--9-----9-----9-----9-----9-----9-----9-----9-----4-----4-----5-|
D|7-----7-----7-----7-----7-----7-----7-----7-----7-----7-----7---|
A|0---------------------------------------------------------------|
E|----------------------------------------------------------------|

  Breakdown (Iíll take it slow...)
e|0---------------0---------------0---------------0---------------|
B|10--------------9---------------7---------------5---------------|
G|9---------------9---------------9---------------4---------------|
D|7---------------7---------------7---------------7---------------|
A|0---------------0---------------0---------------0---------------|
E|0---------------0---------------0---------------0---------------|
Related for Compliment Each Other Like Colors tab